ISO-10303-21;
HEADER;
/* Generated by software containing ST-Developer
 * from STEP Tools, Inc. (www.steptools.com) 
 */
/* OPTION: using custom renumber hook */

FILE_DESCRIPTION(
/* description */ ('STEP AP242',
'CAx-IF Rec.Pracs.---Representation and Presentation of Product Manufa
cturing Information (PMI)---4.0---2014-10-13',
'CAx-IF Rec.Pracs.---3D Tessellated Geometry---0.4---2014-09-14','2;1'),

/* implementation_level */ '2;1');

FILE_NAME(
/* name */ '6530e4482e5141568116a8a3',
/* time_stamp */ '2023-10-19T08:09:45Z',
/* author */ (''),
/* organization */ (''),
/* preprocessor_version */ 'ST-DEVELOPER v19.4',
/* originating_system */ '  ',
/* authorisation */ '  ');

FILE_SCHEMA (('AP242_MANAGED_MODEL_BASED_3D_ENGINEERING_MIM_LF { 1 0 10303 442 1 1 4 }'));
ENDSEC;

DATA;
#10=SHAPE_REPRESENTATION_RELATIONSHIP('','',#169,#11);
#11=ADVANCED_BREP_SHAPE_REPRESENTATION('',(#167),#305);
#12=PLANE('',#180);
#13=PLANE('',#184);
#14=PLANE('',#188);
#15=B_SPLINE_CURVE_WITH_KNOTS('',3,(#245,#246,#247,#248,#249,#250,#251,
#252,#253,#254,#255,#256,#257,#258,#259,#260,#261),.UNSPECIFIED.,.T.,.F.,
(1,1,1,1,1,1,1,1,1,1,1,1,1,1,1,1,1,1,1,1,1),(-0.00204244851099128,-0.00136163234066085,
-0.000680816170330424,0.,0.000680816170330425,0.00136163234066085,0.0027232646813217,
0.00408489702198255,0.00476571319231297,0.0054465293626434,0.00612734553297382,
0.00680816170330425,0.00748897787363467,0.0081697940439651,0.00885061021429552,
0.00953142638462595,0.0102122425549564,0.0108930587252868,0.0115738748956172,
0.0122546910659476,0.0136163234066085),.UNSPECIFIED.);
#16=B_SPLINE_CURVE_WITH_KNOTS('',3,(#268,#269,#270,#271,#272,#273,#274,
#275,#276,#277,#278),.UNSPECIFIED.,.T.,.F.,(1,1,1,1,1,1,1,1,1,1,1,1,1,1,
1),(-0.00399940294092729,-0.00266626862728486,-0.00133313431364243,4.60785923306339E-19,
0.00133313431364243,0.00266626862728486,0.00399940294092729,0.00533253725456972,
0.00666567156821215,0.00799880588185458,0.00933194019549701,0.0106650745091394,
0.0119982088227819,0.0133313431364243,0.0146644774500667),.UNSPECIFIED.);
#17=ORIENTED_EDGE('',*,*,#45,.F.);
#18=ORIENTED_EDGE('',*,*,#46,.T.);
#19=ORIENTED_EDGE('',*,*,#47,.T.);
#20=ORIENTED_EDGE('',*,*,#48,.F.);
#21=ORIENTED_EDGE('',*,*,#49,.T.);
#22=ORIENTED_EDGE('',*,*,#50,.T.);
#23=ORIENTED_EDGE('',*,*,#51,.F.);
#24=ORIENTED_EDGE('',*,*,#52,.T.);
#25=ORIENTED_EDGE('',*,*,#53,.T.);
#26=ORIENTED_EDGE('',*,*,#54,.T.);
#27=ORIENTED_EDGE('',*,*,#55,.T.);
#28=ORIENTED_EDGE('',*,*,#51,.T.);
#29=ORIENTED_EDGE('',*,*,#46,.F.);
#30=ORIENTED_EDGE('',*,*,#56,.T.);
#31=ORIENTED_EDGE('',*,*,#57,.T.);
#32=ORIENTED_EDGE('',*,*,#58,.T.);
#33=ORIENTED_EDGE('',*,*,#48,.T.);
#34=ORIENTED_EDGE('',*,*,#52,.F.);
#35=ORIENTED_EDGE('',*,*,#45,.T.);
#36=ORIENTED_EDGE('',*,*,#49,.F.);
#37=ORIENTED_EDGE('',*,*,#55,.F.);
#38=ORIENTED_EDGE('',*,*,#58,.F.);
#39=ORIENTED_EDGE('',*,*,#54,.F.);
#40=ORIENTED_EDGE('',*,*,#57,.F.);
#41=ORIENTED_EDGE('',*,*,#53,.F.);
#42=ORIENTED_EDGE('',*,*,#56,.F.);
#43=ORIENTED_EDGE('',*,*,#47,.F.);
#44=ORIENTED_EDGE('',*,*,#50,.F.);
#45=EDGE_CURVE('',#59,#59,#73,.T.);
#46=EDGE_CURVE('',#60,#60,#74,.T.);
#47=EDGE_CURVE('',#61,#61,#15,.T.);
#48=EDGE_CURVE('',#62,#62,#75,.T.);
#49=EDGE_CURVE('',#63,#63,#76,.T.);
#50=EDGE_CURVE('',#64,#64,#16,.T.);
#51=EDGE_CURVE('',#65,#65,#77,.T.);
#52=EDGE_CURVE('',#66,#66,#78,.T.);
#53=EDGE_CURVE('',#67,#67,#79,.F.);
#54=EDGE_CURVE('',#68,#68,#80,.F.);
#55=EDGE_CURVE('',#69,#69,#81,.F.);
#56=EDGE_CURVE('',#70,#70,#82,.T.);
#57=EDGE_CURVE('',#71,#71,#83,.T.);
#58=EDGE_CURVE('',#72,#72,#84,.T.);
#59=VERTEX_POINT('',#242);
#60=VERTEX_POINT('',#244);
#61=VERTEX_POINT('',#262);
#62=VERTEX_POINT('',#265);
#63=VERTEX_POINT('',#267);
#64=VERTEX_POINT('',#279);
#65=VERTEX_POINT('',#282);
#66=VERTEX_POINT('',#284);
#67=VERTEX_POINT('',#287);
#68=VERTEX_POINT('',#289);
#69=VERTEX_POINT('',#291);
#70=VERTEX_POINT('',#294);
#71=VERTEX_POINT('',#296);
#72=VERTEX_POINT('',#298);
#73=CIRCLE('',#172,0.003);
#74=CIRCLE('',#173,0.003);
#75=CIRCLE('',#175,0.0075);
#76=CIRCLE('',#176,0.0075);
#77=CIRCLE('',#178,0.014);
#78=CIRCLE('',#179,0.014);
#79=CIRCLE('',#181,0.0017);
#80=CIRCLE('',#182,0.0017);
#81=CIRCLE('',#183,0.0017);
#82=CIRCLE('',#185,0.0017);
#83=CIRCLE('',#186,0.0017);
#84=CIRCLE('',#187,0.0017);
#85=EDGE_LOOP('',(#17));
#86=EDGE_LOOP('',(#18));
#87=EDGE_LOOP('',(#19));
#88=EDGE_LOOP('',(#20));
#89=EDGE_LOOP('',(#21));
#90=EDGE_LOOP('',(#22));
#91=EDGE_LOOP('',(#23));
#92=EDGE_LOOP('',(#24));
#93=EDGE_LOOP('',(#25));
#94=EDGE_LOOP('',(#26));
#95=EDGE_LOOP('',(#27));
#96=EDGE_LOOP('',(#28));
#97=EDGE_LOOP('',(#29));
#98=EDGE_LOOP('',(#30));
#99=EDGE_LOOP('',(#31));
#100=EDGE_LOOP('',(#32));
#101=EDGE_LOOP('',(#33));
#102=EDGE_LOOP('',(#34));
#103=EDGE_LOOP('',(#35));
#104=EDGE_LOOP('',(#36));
#105=EDGE_LOOP('',(#37));
#106=EDGE_LOOP('',(#38));
#107=EDGE_LOOP('',(#39));
#108=EDGE_LOOP('',(#40));
#109=EDGE_LOOP('',(#41));
#110=EDGE_LOOP('',(#42));
#111=EDGE_LOOP('',(#43));
#112=EDGE_LOOP('',(#44));
#113=FACE_BOUND('',#85,.T.);
#114=FACE_BOUND('',#86,.T.);
#115=FACE_BOUND('',#87,.T.);
#116=FACE_BOUND('',#88,.T.);
#117=FACE_BOUND('',#89,.T.);
#118=FACE_BOUND('',#90,.T.);
#119=FACE_BOUND('',#91,.T.);
#120=FACE_BOUND('',#92,.T.);
#121=FACE_BOUND('',#93,.T.);
#122=FACE_BOUND('',#94,.T.);
#123=FACE_BOUND('',#95,.T.);
#124=FACE_BOUND('',#96,.T.);
#125=FACE_BOUND('',#97,.T.);
#126=FACE_BOUND('',#98,.T.);
#127=FACE_BOUND('',#99,.T.);
#128=FACE_BOUND('',#100,.T.);
#129=FACE_BOUND('',#101,.T.);
#130=FACE_BOUND('',#102,.T.);
#131=FACE_BOUND('',#103,.T.);
#132=FACE_BOUND('',#104,.T.);
#133=FACE_BOUND('',#105,.T.);
#134=FACE_BOUND('',#106,.T.);
#135=FACE_BOUND('',#107,.T.);
#136=FACE_BOUND('',#108,.T.);
#137=FACE_BOUND('',#109,.T.);
#138=FACE_BOUND('',#110,.T.);
#139=FACE_BOUND('',#111,.T.);
#140=FACE_BOUND('',#112,.T.);
#141=CYLINDRICAL_SURFACE('',#171,0.003);
#142=CYLINDRICAL_SURFACE('',#174,0.0075);
#143=CYLINDRICAL_SURFACE('',#177,0.014);
#144=CYLINDRICAL_SURFACE('',#189,0.0017);
#145=CYLINDRICAL_SURFACE('',#190,0.0017);
#146=CYLINDRICAL_SURFACE('',#191,0.0017);
#147=CYLINDRICAL_SURFACE('',#192,0.0017);
#148=ADVANCED_FACE('',(#113,#114,#115),#141,.F.);
#149=ADVANCED_FACE('',(#116,#117,#118),#142,.T.);
#150=ADVANCED_FACE('',(#119,#120),#143,.T.);
#151=ADVANCED_FACE('',(#121,#122,#123,#124,#125),#12,.T.);
#152=ADVANCED_FACE('',(#126,#127,#128,#129,#130),#13,.F.);
#153=ADVANCED_FACE('',(#131,#132),#14,.F.);
#154=ADVANCED_FACE('',(#133,#134),#144,.F.);
#155=ADVANCED_FACE('',(#135,#136),#145,.F.);
#156=ADVANCED_FACE('',(#137,#138),#146,.F.);
#157=ADVANCED_FACE('',(#139,#140),#147,.F.);
#158=CLOSED_SHELL('',(#148,#149,#150,#151,#152,#153,#154,#155,#156,#157));
#159=STYLED_ITEM('',(#160),#167);
#160=PRESENTATION_STYLE_ASSIGNMENT((#161));
#161=SURFACE_STYLE_USAGE(.BOTH.,#162);
#162=SURFACE_SIDE_STYLE('',(#163));
#163=SURFACE_STYLE_FILL_AREA(#164);
#164=FILL_AREA_STYLE('',(#165));
#165=FILL_AREA_STYLE_COLOUR('',#166);
#166=COLOUR_RGB('',0.615686274509804,0.811764705882353,0.929411764705882);
#167=MANIFOLD_SOLID_BREP('Hub',#158);
#168=SHAPE_DEFINITION_REPRESENTATION(#310,#169);
#169=SHAPE_REPRESENTATION('Hub',(#170),#305);
#170=AXIS2_PLACEMENT_3D('',#239,#193,#194);
#171=AXIS2_PLACEMENT_3D('',#240,#195,#196);
#172=AXIS2_PLACEMENT_3D('',#241,#197,#198);
#173=AXIS2_PLACEMENT_3D('',#243,#199,#200);
#174=AXIS2_PLACEMENT_3D('',#263,#201,#202);
#175=AXIS2_PLACEMENT_3D('',#264,#203,#204);
#176=AXIS2_PLACEMENT_3D('',#266,#205,#206);
#177=AXIS2_PLACEMENT_3D('',#280,#207,#208);
#178=AXIS2_PLACEMENT_3D('',#281,#209,#210);
#179=AXIS2_PLACEMENT_3D('',#283,#211,#212);
#180=AXIS2_PLACEMENT_3D('',#285,#213,#214);
#181=AXIS2_PLACEMENT_3D('',#286,#215,#216);
#182=AXIS2_PLACEMENT_3D('',#288,#217,#218);
#183=AXIS2_PLACEMENT_3D('',#290,#219,#220);
#184=AXIS2_PLACEMENT_3D('',#292,#221,#222);
#185=AXIS2_PLACEMENT_3D('',#293,#223,#224);
#186=AXIS2_PLACEMENT_3D('',#295,#225,#226);
#187=AXIS2_PLACEMENT_3D('',#297,#227,#228);
#188=AXIS2_PLACEMENT_3D('',#299,#229,#230);
#189=AXIS2_PLACEMENT_3D('',#300,#231,#232);
#190=AXIS2_PLACEMENT_3D('',#301,#233,#234);
#191=AXIS2_PLACEMENT_3D('',#302,#235,#236);
#192=AXIS2_PLACEMENT_3D('',#303,#237,#238);
#193=DIRECTION('',(0.,0.,1.));
#194=DIRECTION('',(1.,0.,0.));
#195=DIRECTION('',(0.,0.,-1.));
#196=DIRECTION('',(-1.,0.,0.));
#197=DIRECTION('',(0.,0.,1.));
#198=DIRECTION('',(1.,0.,0.));
#199=DIRECTION('',(0.,0.,1.));
#200=DIRECTION('',(1.,0.,0.));
#201=DIRECTION('',(0.,0.,1.));
#202=DIRECTION('',(1.,0.,0.));
#203=DIRECTION('',(0.,0.,1.));
#204=DIRECTION('',(1.,0.,0.));
#205=DIRECTION('',(0.,0.,1.));
#206=DIRECTION('',(1.,0.,0.));
#207=DIRECTION('',(0.,0.,-1.));
#208=DIRECTION('',(-1.,0.,0.));
#209=DIRECTION('',(0.,0.,1.));
#210=DIRECTION('',(1.,0.,0.));
#211=DIRECTION('',(0.,0.,1.));
#212=DIRECTION('',(1.,0.,0.));
#213=DIRECTION('',(0.,0.,1.));
#214=DIRECTION('',(1.,0.,0.));
#215=DIRECTION('',(0.,0.,1.));
#216=DIRECTION('',(1.,0.,0.));
#217=DIRECTION('',(0.,0.,1.));
#218=DIRECTION('',(1.,0.,0.));
#219=DIRECTION('',(0.,0.,1.));
#220=DIRECTION('',(1.,0.,0.));
#221=DIRECTION('',(0.,0.,1.));
#222=DIRECTION('',(1.,0.,0.));
#223=DIRECTION('',(0.,0.,1.));
#224=DIRECTION('',(1.,0.,0.));
#225=DIRECTION('',(0.,0.,1.));
#226=DIRECTION('',(1.,0.,0.));
#227=DIRECTION('',(0.,0.,1.));
#228=DIRECTION('',(1.,0.,0.));
#229=DIRECTION('',(0.,0.,1.));
#230=DIRECTION('',(1.,0.,0.));
#231=DIRECTION('',(0.,0.,1.));
#232=DIRECTION('',(1.,0.,0.));
#233=DIRECTION('',(0.,0.,1.));
#234=DIRECTION('',(1.,0.,0.));
#235=DIRECTION('',(0.,0.,1.));
#236=DIRECTION('',(1.,0.,0.));
#237=DIRECTION('',(0.,1.,0.));
#238=DIRECTION('',(0.,0.,1.));
#239=CARTESIAN_POINT('',(0.,0.,0.));
#240=CARTESIAN_POINT('',(0.,1.83697019872103E-19,0.004));
#241=CARTESIAN_POINT('',(0.,1.83697019872103E-19,-0.012));
#242=CARTESIAN_POINT('',(0.003,1.83697019872103E-19,-0.012));
#243=CARTESIAN_POINT('',(0.,1.83697019872103E-19,0.004));
#244=CARTESIAN_POINT('',(0.003,1.83697019872103E-19,0.004));
#245=CARTESIAN_POINT('',(-0.000902475780205387,0.00288556677383424,-0.00239496654914819));
#246=CARTESIAN_POINT('',(-0.000223299499145097,0.00301938503293276,-0.00225241944322401));
#247=CARTESIAN_POINT('',(0.000463880561270538,0.0029875567821959,-0.00239535567795576));
#248=CARTESIAN_POINT('',(0.00121173293096947,0.00278175783282679,-0.00290611052211676));
#249=CARTESIAN_POINT('',(0.00166771505673814,0.00249058123879824,-0.00403002279005033));
#250=CARTESIAN_POINT('',(0.00117417384520599,0.00280030675845453,-0.00514182510405747));
#251=CARTESIAN_POINT('',(0.000409425016132521,0.0029959971685697,-0.00562691528541625));
#252=CARTESIAN_POINT('',(-0.000282681140453831,0.00301429523667557,-0.00574620379856933));
#253=CARTESIAN_POINT('',(-0.000952412259804667,0.00286883875761853,-0.00558253710938958));
#254=CARTESIAN_POINT('',(-0.00148096518034129,0.00262579243323201,-0.00519994333690223));
#255=CARTESIAN_POINT('',(-0.00183623048226603,0.00237893698582462,-0.0046579392712597));
#256=CARTESIAN_POINT('',(-0.00196979905475879,0.00226169399096048,-0.00397286660421483));
#257=CARTESIAN_POINT('',(-0.00181513865649823,0.00239622839478708,-0.00329233253580057));
#258=CARTESIAN_POINT('',(-0.00144257187095036,0.00264782791968608,-0.00276106715199686));
#259=CARTESIAN_POINT('',(-0.000902475780205387,0.00288556677383424,-0.00239496654914819));
#260=CARTESIAN_POINT('',(-0.000223299499145097,0.00301938503293276,-0.00225241944322401));
#261=CARTESIAN_POINT('',(0.000463880561270538,0.0029875567821959,-0.00239535567795576));
#262=CARTESIAN_POINT('',(-0.000221965535919206,0.00299177728129353,-0.0023));
#263=CARTESIAN_POINT('',(0.,4.59242549680257E-19,-0.012));
#264=CARTESIAN_POINT('',(0.,4.59242549680257E-19,0.));
#265=CARTESIAN_POINT('',(0.0075,4.59242549680257E-19,0.));
#266=CARTESIAN_POINT('',(0.,4.59242549680257E-19,-0.012));
#267=CARTESIAN_POINT('',(0.0075,4.59242549680257E-19,-0.012));
#268=CARTESIAN_POINT('',(0.00111436651310319,0.00743948008546784,-0.00267042217701486));
#269=CARTESIAN_POINT('',(-0.000223764366254253,0.00754493649867176,-0.00211563660354093));
#270=CARTESIAN_POINT('',(-0.00155110226360141,0.00736106212291371,-0.00266703140882144));
#271=CARTESIAN_POINT('',(-0.00210586428965791,0.00719418518849605,-0.00399351845075526));
#272=CARTESIAN_POINT('',(-0.0015571871726149,0.00735953980598573,-0.00532805553655909));
#273=CARTESIAN_POINT('',(-0.000232986748297035,0.00754453002310332,-0.00588335559848971));
#274=CARTESIAN_POINT('',(0.00110543208502805,0.00744106138791215,-0.00533838998380858));
#275=CARTESIAN_POINT('',(0.00166209096731066,0.00730924498157796,-0.00400531388693518));
#276=CARTESIAN_POINT('',(0.00111436651310319,0.00743948008546784,-0.00267042217701486));
#277=CARTESIAN_POINT('',(-0.000223764366254253,0.00754493649867176,-0.00211563660354093));
#278=CARTESIAN_POINT('',(-0.00155110226360141,0.00736106212291371,-0.00266703140882144));
#279=CARTESIAN_POINT('',(-0.000221965535919206,0.00749671470051143,-0.0023));
#280=CARTESIAN_POINT('',(0.,8.57252759403147E-19,0.004));
#281=CARTESIAN_POINT('',(0.,8.57252759403147E-19,0.004));
#282=CARTESIAN_POINT('',(0.014,8.57252759403147E-19,0.004));
#283=CARTESIAN_POINT('',(0.,8.57252759403147E-19,0.));
#284=CARTESIAN_POINT('',(0.014,8.57252759403147E-19,0.));
#285=CARTESIAN_POINT('',(0.,0.,0.004));
#286=CARTESIAN_POINT('',(0.,0.0115,0.004));
#287=CARTESIAN_POINT('',(0.0017,0.0115,0.004));
#288=CARTESIAN_POINT('',(-0.00995929214352105,-0.00575,0.004));
#289=CARTESIAN_POINT('',(-0.00825929214352105,-0.00575,0.004));
#290=CARTESIAN_POINT('',(0.00995929214352104,-0.00575,0.004));
#291=CARTESIAN_POINT('',(0.011659292143521,-0.00575,0.004));
#292=CARTESIAN_POINT('',(0.,0.,0.));
#293=CARTESIAN_POINT('',(0.,0.0115,0.));
#294=CARTESIAN_POINT('',(0.0017,0.0115,0.));
#295=CARTESIAN_POINT('',(-0.00995929214352105,-0.00575,0.));
#296=CARTESIAN_POINT('',(-0.00825929214352105,-0.00575,0.));
#297=CARTESIAN_POINT('',(0.00995929214352104,-0.00575,0.));
#298=CARTESIAN_POINT('',(0.011659292143521,-0.00575,0.));
#299=CARTESIAN_POINT('',(0.,0.,-0.012));
#300=CARTESIAN_POINT('',(0.00995929214352104,-0.00575,0.));
#301=CARTESIAN_POINT('',(-0.00995929214352105,-0.00575,0.));
#302=CARTESIAN_POINT('',(0.,0.0115,0.));
#303=CARTESIAN_POINT('',(-0.000221965535919206,0.,-0.004));
#304=MECHANICAL_DESIGN_GEOMETRIC_PRESENTATION_REPRESENTATION('',(#159),
#305);
#305=(
GEOMETRIC_REPRESENTATION_CONTEXT(3)
GLOBAL_UNCERTAINTY_ASSIGNED_CONTEXT((#306))
GLOBAL_UNIT_ASSIGNED_CONTEXT((#309,#308,#307))
REPRESENTATION_CONTEXT('Hub','TOP_LEVEL_ASSEMBLY_PART')
);
#306=UNCERTAINTY_MEASURE_WITH_UNIT(LENGTH_MEASURE(5.E-6),#309,
'DISTANCE_ACCURACY_VALUE','Maximum Tolerance applied to model');
#307=(
NAMED_UNIT(*)
SI_UNIT($,.STERADIAN.)
SOLID_ANGLE_UNIT()
);
#308=(
NAMED_UNIT(*)
PLANE_ANGLE_UNIT()
SI_UNIT($,.RADIAN.)
);
#309=(
LENGTH_UNIT()
NAMED_UNIT(*)
SI_UNIT($,.METRE.)
);
#310=PRODUCT_DEFINITION_SHAPE('','',#311);
#311=PRODUCT_DEFINITION('','',#313,#312);
#312=PRODUCT_DEFINITION_CONTEXT('',#319,'design');
#313=PRODUCT_DEFINITION_FORMATION_WITH_SPECIFIED_SOURCE('','',#315,
 .NOT_KNOWN.);
#314=PRODUCT_RELATED_PRODUCT_CATEGORY('','',(#315));
#315=PRODUCT('Hub','Hub','Hub',(#317));
#316=PRODUCT_CATEGORY('','');
#317=PRODUCT_CONTEXT('',#319,'mechanical');
#318=APPLICATION_PROTOCOL_DEFINITION('international standard',
'ap242_managed_model_based_3d_engineering',2011,#319);
#319=APPLICATION_CONTEXT('managed model based 3d engineering');
ENDSEC;
END-ISO-10303-21;
