ISO-10303-21;
HEADER;
FILE_DESCRIPTION (( 'STEP AP214' ),
    '1' );
FILE_NAME ('Support tube.step',
    '2018-06-21T12:59:53',
    ( 'User' ),
    ( 'china' ),
    'SwSTEP 2.0',
    'SolidWorks 2016',
    '' );
FILE_SCHEMA (( 'AUTOMOTIVE_DESIGN' ));
ENDSEC;

DATA;
#1 = VECTOR ( 'NONE', #76, 1000.000000000000000 ) ;
#2 = DIRECTION ( 'NONE',  ( 0.0000000000000000000, 0.0000000000000000000, 1.000000000000000000 ) ) ;
#3 = CLOSED_SHELL ( 'NONE', ( #160, #227, #127, #42, #249, #256, #350, #103, #18, #364, #284, #319 ) ) ;
#4 = DIRECTION ( 'NONE',  ( -0.0000000000000000000, 1.000000000000000000, -0.0000000000000000000 ) ) ;
#5 = DIRECTION ( 'NONE',  ( 0.0000000000000000000, -1.000000000000000000, 0.0000000000000000000 ) ) ;
#6 =( NAMED_UNIT ( * ) PLANE_ANGLE_UNIT ( ) SI_UNIT ( $, .RADIAN. ) );
#7 = CARTESIAN_POINT ( 'NONE',  ( 0.0000000000000000000, 93.00000000000000000, 15.00000000000000000 ) ) ;
#8 = FACE_OUTER_BOUND ( 'NONE', #288, .T. ) ;
#9 = CARTESIAN_POINT ( 'NONE',  ( 0.0000000000000000000, 7.000000000000000000, -15.00000000000000000 ) ) ;
#10 = DIRECTION ( 'NONE',  ( 0.0000000000000000000, 1.000000000000000000, 0.0000000000000000000 ) ) ;
#11 = DIRECTION ( 'NONE',  ( -0.0000000000000000000, -1.000000000000000000, -0.0000000000000000000 ) ) ;
#12 = CARTESIAN_POINT ( 'NONE',  ( 0.0000000000000000000, 100.0000000000000000, 0.0000000000000000000 ) ) ;
#13 = ORIENTED_EDGE ( 'NONE', *, *, #293, .T. ) ;
#14 = VERTEX_POINT ( 'NONE', #334 ) ;
#15 = DIRECTION ( 'NONE',  ( 0.0000000000000000000, -0.0000000000000000000, 1.000000000000000000 ) ) ;
#16 = DIRECTION ( 'NONE',  ( 0.0000000000000000000, 1.000000000000000000, 0.0000000000000000000 ) ) ;
#17 = ORIENTED_EDGE ( 'NONE', *, *, #99, .T. ) ;
#18 = ADVANCED_FACE ( 'NONE', ( #169, #168 ), #328, .T. ) ;
#19 = CIRCLE ( 'NONE', #358, 15.00000000000000000 ) ;
#20 = CARTESIAN_POINT ( 'NONE',  ( 0.0000000000000000000, 0.0000000000000000000, 0.0000000000000000000 ) ) ;
#21 = ORIENTED_EDGE ( 'NONE', *, *, #272, .F. ) ;
#22 = CARTESIAN_POINT ( 'NONE',  ( 0.0000000000000000000, 100.0000000000000000, -14.00000000000000000 ) ) ;
#23 = EDGE_LOOP ( 'NONE', ( #254, #17, #21, #198 ) ) ;
#24 = ORIENTED_EDGE ( 'NONE', *, *, #137, .T. ) ;
#25 = CARTESIAN_POINT ( 'NONE',  ( 0.0000000000000000000, 0.0000000000000000000, -14.00000000000000000 ) ) ;
#26 = EDGE_LOOP ( 'NONE', ( #32, #335 ) ) ;
#27 = DIRECTION ( 'NONE',  ( -0.0000000000000000000, -1.000000000000000000, -0.0000000000000000000 ) ) ;
#28 = ORIENTED_EDGE ( 'NONE', *, *, #161, .F. ) ;
#29 = PLANE ( 'NONE',  #367 ) ;
#30 = ORIENTED_EDGE ( 'NONE', *, *, #369, .T. ) ;
#31 = CARTESIAN_POINT ( 'NONE',  ( 0.0000000000000000000, 93.00000000000000000, 0.0000000000000000000 ) ) ;
#32 = ORIENTED_EDGE ( 'NONE', *, *, #272, .T. ) ;
#33 = CIRCLE ( 'NONE', #190, 14.00000000000000000 ) ;
#34 = DIRECTION ( 'NONE',  ( 0.0000000000000000000, -0.0000000000000000000, 1.000000000000000000 ) ) ;
#35 = DIRECTION ( 'NONE',  ( -0.0000000000000000000, -1.000000000000000000, -0.0000000000000000000 ) ) ;
#36 = CARTESIAN_POINT ( 'NONE',  ( 0.0000000000000000000, 100.0000000000000000, 0.0000000000000000000 ) ) ;
#37 = DIRECTION ( 'NONE',  ( 0.0000000000000000000, 0.0000000000000000000, -1.000000000000000000 ) ) ;
#38 = DIRECTION ( 'NONE',  ( 0.0000000000000000000, -1.000000000000000000, 0.0000000000000000000 ) ) ;
#39 = CARTESIAN_POINT ( 'NONE',  ( 0.0000000000000000000, 0.0000000000000000000, 0.0000000000000000000 ) ) ;
#40 = CARTESIAN_POINT ( 'NONE',  ( 1.959434878635765100E-015, 100.0000000000000000, 16.00000000000000000 ) ) ;
#41 = UNCERTAINTY_MEASURE_WITH_UNIT (LENGTH_MEASURE( 1.000000000000000100E-005 ), #176, 'distance_accuracy_value', 'NONE');
#42 = ADVANCED_FACE ( 'NONE', ( #163 ), #154, .T. ) ;
#43 = DIRECTION ( 'NONE',  ( 0.0000000000000000000, 0.0000000000000000000, -1.000000000000000000 ) ) ;
#44 = CYLINDRICAL_SURFACE ( 'NONE', #371, 16.00000000000000000 ) ;
#45 = ORIENTED_EDGE ( 'NONE', *, *, #162, .F. ) ;
#46 = PRESENTATION_STYLE_ASSIGNMENT (( #68 ) ) ;
#47 = ORIENTED_EDGE ( 'NONE', *, *, #151, .F. ) ;
#48 = ORIENTED_EDGE ( 'NONE', *, *, #300, .T. ) ;
#49 = ORIENTED_EDGE ( 'NONE', *, *, #210, .F. ) ;
#50 = SURFACE_STYLE_FILL_AREA ( #72 ) ;
#51 =( NAMED_UNIT ( * ) SI_UNIT ( $, .STERADIAN. ) SOLID_ANGLE_UNIT ( ) );
#52 = CYLINDRICAL_SURFACE ( 'NONE', #352, 15.00000000000000000 ) ;
#53 = DIRECTION ( 'NONE',  ( 1.000000000000000000, 0.0000000000000000000, 0.0000000000000000000 ) ) ;
#54 = CYLINDRICAL_SURFACE ( 'NONE', #269, 15.00000000000000000 ) ;
#55 = CARTESIAN_POINT ( 'NONE',  ( 0.0000000000000000000, 100.0000000000000000, 15.00000000000000000 ) ) ;
#56 = ORIENTED_EDGE ( 'NONE', *, *, #167, .T. ) ;
#57 = CARTESIAN_POINT ( 'NONE',  ( 0.0000000000000000000, 7.000000000000006200, 0.0000000000000000000 ) ) ;
#58 = CARTESIAN_POINT ( 'NONE',  ( 1.714505518806294600E-015, 0.0000000000000000000, 14.00000000000000000 ) ) ;
#59 = ORIENTED_EDGE ( 'NONE', *, *, #372, .T. ) ;
#60 = ORIENTED_EDGE ( 'NONE', *, *, #216, .F. ) ;
#61 = CIRCLE ( 'NONE', #214, 15.00000000000000000 ) ;
#62 =( NAMED_UNIT ( * ) SI_UNIT ( $, .STERADIAN. ) SOLID_ANGLE_UNIT ( ) );
#63 =( NAMED_UNIT ( * ) PLANE_ANGLE_UNIT ( ) SI_UNIT ( $, .RADIAN. ) );
#64 = CIRCLE ( 'NONE', #365, 15.00000000000000000 ) ;
#65 = ORIENTED_EDGE ( 'NONE', *, *, #241, .T. ) ;
#66 =( LENGTH_UNIT ( ) NAMED_UNIT ( * ) SI_UNIT ( .MILLI., .METRE. ) );
#67 = COLOUR_RGB ( '',1.000000000000000000, 1.000000000000000000, 1.000000000000000000 ) ;
#68 = SURFACE_STYLE_USAGE ( .BOTH. , #69 ) ;
#69 = SURFACE_SIDE_STYLE ('',( #50 ) ) ;
#70 = ORIENTED_EDGE ( 'NONE', *, *, #161, .T. ) ;
#71 = ORIENTED_EDGE ( 'NONE', *, *, #151, .T. ) ;
#72 = FILL_AREA_STYLE ('',( #74 ) ) ;
#73 = SHAPE_DEFINITION_REPRESENTATION ( #158, #110 ) ;
#74 = FILL_AREA_STYLE_COLOUR ( '', #67 ) ;
#75 = ORIENTED_EDGE ( 'NONE', *, *, #286, .T. ) ;
#76 = DIRECTION ( 'NONE',  ( -0.0000000000000000000, -1.000000000000000000, -0.0000000000000000000 ) ) ;
#77 = DIRECTION ( 'NONE',  ( 0.0000000000000000000, 0.0000000000000000000, 1.000000000000000000 ) ) ;
#78 = VERTEX_POINT ( 'NONE', #304 ) ;
#79 = VERTEX_POINT ( 'NONE', #303 ) ;
#80 = FACE_OUTER_BOUND ( 'NONE', #108, .T. ) ;
#81 = CARTESIAN_POINT ( 'NONE',  ( 0.0000000000000000000, 93.00000000000000000, 0.0000000000000000000 ) ) ;
#82 =( LENGTH_UNIT ( ) NAMED_UNIT ( * ) SI_UNIT ( .MILLI., .METRE. ) );
#83 = DIRECTION ( 'NONE',  ( 0.0000000000000000000, 0.0000000000000000000, 1.000000000000000000 ) ) ;
#84 = APPLICATION_PROTOCOL_DEFINITION ( 'draft international standard', 'automotive_design', 1998, #118 ) ;
#85 = DIRECTION ( 'NONE',  ( 0.0000000000000000000, 1.000000000000000000, 0.0000000000000000000 ) ) ;
#86 = APPLICATION_CONTEXT ( 'automotive_design' ) ;
#87 = VECTOR ( 'NONE', #111, 1000.000000000000000 ) ;
#88 = CARTESIAN_POINT ( 'NONE',  ( 0.0000000000000000000, 100.0000000000000000, 0.0000000000000000000 ) ) ;
#89 = CARTESIAN_POINT ( 'NONE',  ( 0.0000000000000000000, 100.0000000000000000, -16.00000000000000000 ) ) ;
#90 = CARTESIAN_POINT ( 'NONE',  ( 0.0000000000000000000, 7.000000000000000000, 0.0000000000000000000 ) ) ;
#91 = DIRECTION ( 'NONE',  ( 0.0000000000000000000, 1.000000000000000000, 0.0000000000000000000 ) ) ;
#92 = ORIENTED_EDGE ( 'NONE', *, *, #137, .F. ) ;
#93 = CARTESIAN_POINT ( 'NONE',  ( 0.0000000000000000000, 93.00000000000000000, 15.00000000000000000 ) ) ;
#94 = LINE ( 'NONE', #40, #1 ) ;
#95 = ORIENTED_EDGE ( 'NONE', *, *, #194, .F. ) ;
#96 = CARTESIAN_POINT ( 'NONE',  ( 0.0000000000000000000, 7.000000000000000000, 0.0000000000000000000 ) ) ;
#97 = DIRECTION ( 'NONE',  ( 0.0000000000000000000, -1.000000000000000000, 0.0000000000000000000 ) ) ;
#98 = CARTESIAN_POINT ( 'NONE',  ( 0.0000000000000000000, 0.0000000000000000000, -15.00000000000000000 ) ) ;
#99 = EDGE_CURVE ( 'NONE', #200, #311, #164, .T. ) ;
#100 = DIRECTION ( 'NONE',  ( -0.0000000000000000000, 1.000000000000000000, -0.0000000000000000000 ) ) ;
#101 = CIRCLE ( 'NONE', #199, 15.00000000000000000 ) ;
#102 = DIRECTION ( 'NONE',  ( 0.0000000000000000000, 0.0000000000000000000, 1.000000000000000000 ) ) ;
#103 = ADVANCED_FACE ( 'NONE', ( #260 ), #136, .F. ) ;
#104 = DIRECTION ( 'NONE',  ( 0.0000000000000000000, 1.000000000000000000, 0.0000000000000000000 ) ) ;
#105 = LINE ( 'NONE', #179, #87 ) ;
#106 = FACE_OUTER_BOUND ( 'NONE', #195, .T. ) ;
#107 = CARTESIAN_POINT ( 'NONE',  ( 0.0000000000000000000, 93.00000000000000000, 0.0000000000000000000 ) ) ;
#108 = EDGE_LOOP ( 'NONE', ( #130, #225, #28, #119 ) ) ;
#109 = CIRCLE ( 'NONE', #268, 14.00000000000000000 ) ;
#110 = ADVANCED_BREP_SHAPE_REPRESENTATION ( 'Support tube', ( #232, #329 ), #344 ) ;
#111 = DIRECTION ( 'NONE',  ( -0.0000000000000000000, 1.000000000000000000, -0.0000000000000000000 ) ) ;
#112 = DIRECTION ( 'NONE',  ( 0.0000000000000000000, 0.0000000000000000000, 1.000000000000000000 ) ) ;
#113 = LINE ( 'NONE', #89, #262 ) ;
#114 = DIRECTION ( 'NONE',  ( 0.0000000000000000000, 1.000000000000000000, 0.0000000000000000000 ) ) ;
#115 = DIRECTION ( 'NONE',  ( 0.0000000000000000000, -1.000000000000000000, 0.0000000000000000000 ) ) ;
#116 = VECTOR ( 'NONE', #208, 1000.000000000000000 ) ;
#117 = CARTESIAN_POINT ( 'NONE',  ( 0.0000000000000000000, 0.0000000000000000000, 0.0000000000000000000 ) ) ;
#118 = APPLICATION_CONTEXT ( 'automotive_design' ) ;
#119 = ORIENTED_EDGE ( 'NONE', *, *, #261, .F. ) ;
#120 = CIRCLE ( 'NONE', #289, 16.00000000000000000 ) ;
#121 = CYLINDRICAL_SURFACE ( 'NONE', #264, 15.00000000000000000 ) ;
#122 = PLANE ( 'NONE',  #348 ) ;
#123 = CIRCLE ( 'NONE', #187, 15.00000000000000000 ) ;
#124 = CIRCLE ( 'NONE', #209, 15.00000000000000000 ) ;
#125 = LINE ( 'NONE', #197, #116 ) ;
#126 = DIRECTION ( 'NONE',  ( 0.0000000000000000000, 0.0000000000000000000, 1.000000000000000000 ) ) ;
#127 = ADVANCED_FACE ( 'NONE', ( #159 ), #131, .F. ) ;
#128 = CIRCLE ( 'NONE', #235, 15.00000000000000000 ) ;
#129 = DIRECTION ( 'NONE',  ( 0.0000000000000000000, 1.000000000000000000, 0.0000000000000000000 ) ) ;
#130 = ORIENTED_EDGE ( 'NONE', *, *, #162, .T. ) ;
#131 = CYLINDRICAL_SURFACE ( 'NONE', #144, 14.00000000000000000 ) ;
#132 = FACE_OUTER_BOUND ( 'NONE', #244, .T. ) ;
#133 = ORIENTED_EDGE ( 'NONE', *, *, #167, .F. ) ;
#134 = CARTESIAN_POINT ( 'NONE',  ( 0.0000000000000000000, 93.00000000000000000, 0.0000000000000000000 ) ) ;
#135 = FACE_OUTER_BOUND ( 'NONE', #325, .T. ) ;
#136 = CYLINDRICAL_SURFACE ( 'NONE', #366, 14.00000000000000000 ) ;
#137 = EDGE_CURVE ( 'NONE', #178, #79, #142, .T. ) ;
#138 = EDGE_CURVE ( 'NONE', #252, #200, #153, .T. ) ;
#139 = AXIS2_PLACEMENT_3D ( 'NONE', #337, #342, #309 ) ;
#140 = CIRCLE ( 'NONE', #185, 16.00000000000000000 ) ;
#141 = ORIENTED_EDGE ( 'NONE', *, *, #207, .F. ) ;
#142 = CIRCLE ( 'NONE', #155, 16.00000000000000000 ) ;
#143 = PRODUCT ( 'Support tube', 'Support tube', '', ( #274 ) ) ;
#144 = AXIS2_PLACEMENT_3D ( 'NONE', #282, #276, #283 ) ;
#145 = FACE_OUTER_BOUND ( 'NONE', #228, .T. ) ;
#146 = SURFACE_SIDE_STYLE ('',( #273 ) ) ;
#147 = ORIENTED_EDGE ( 'NONE', *, *, #369, .F. ) ;
#148 = VERTEX_POINT ( 'NONE', #266 ) ;
#149 = PRESENTATION_LAYER_ASSIGNMENT (  '', '', ( #291 ) ) ;
#150 = DIRECTION ( 'NONE',  ( -0.0000000000000000000, -1.000000000000000000, -0.0000000000000000000 ) ) ;
#151 = EDGE_CURVE ( 'NONE', #152, #339, #140, .T. ) ;
#152 = VERTEX_POINT ( 'NONE', #253 ) ;
#153 = CIRCLE ( 'NONE', #279, 14.00000000000000000 ) ;
#154 = CYLINDRICAL_SURFACE ( 'NONE', #139, 16.00000000000000000 ) ;
#155 = AXIS2_PLACEMENT_3D ( 'NONE', #258, #257, #255 ) ;
#156 = FACE_OUTER_BOUND ( 'NONE', #177, .T. ) ;
#157 = MECHANICAL_DESIGN_GEOMETRIC_PRESENTATION_REPRESENTATION (  '', ( #291 ), #374 ) ;
#158 = PRODUCT_DEFINITION_SHAPE ( 'NONE', 'NONE',  #327 ) ;
#159 = FACE_OUTER_BOUND ( 'NONE', #23, .T. ) ;
#160 = ADVANCED_FACE ( 'NONE', ( #132 ), #121, .T. ) ;
#161 = EDGE_CURVE ( 'NONE', #233, #14, #123, .T. ) ;
#162 = EDGE_CURVE ( 'NONE', #221, #148, #128, .T. ) ;
#163 = FACE_OUTER_BOUND ( 'NONE', #246, .T. ) ;
#164 = LINE ( 'NONE', #310, #166 ) ;
#165 = LINE ( 'NONE', #184, #299 ) ;
#166 = VECTOR ( 'NONE', #290, 1000.000000000000000 ) ;
#167 = EDGE_CURVE ( 'NONE', #355, #78, #125, .T. ) ;
#168 = FACE_OUTER_BOUND ( 'NONE', #251, .T. ) ;
#169 = FACE_BOUND ( 'NONE', #265, .T. ) ;
#170 = ORIENTED_EDGE ( 'NONE', *, *, #207, .T. ) ;
#171 = DIRECTION ( 'NONE',  ( -0.0000000000000000000, 1.000000000000000000, -0.0000000000000000000 ) ) ;
#172 = FACE_BOUND ( 'NONE', #183, .T. ) ;
#173 = CARTESIAN_POINT ( 'NONE',  ( 0.0000000000000000000, 0.0000000000000000000, 0.0000000000000000000 ) ) ;
#174 = PRODUCT_DEFINITION_CONTEXT ( 'detailed design', #86, 'design' ) ;
#175 = CARTESIAN_POINT ( 'NONE',  ( 1.959434878635765100E-015, 93.00000000000000000, 16.00000000000000000 ) ) ;
#176 =( LENGTH_UNIT ( ) NAMED_UNIT ( * ) SI_UNIT ( .MILLI., .METRE. ) );
#177 = EDGE_LOOP ( 'NONE', ( #70, #308 ) ) ;
#178 = VERTEX_POINT ( 'NONE', #175 ) ;
#179 = CARTESIAN_POINT ( 'NONE',  ( 1.836970198721029600E-015, 93.00000000000000000, -15.00000000000000000 ) ) ;
#180 = DIRECTION ( 'NONE',  ( 0.0000000000000000000, 0.0000000000000000000, 1.000000000000000000 ) ) ;
#181 = DIRECTION ( 'NONE',  ( 0.0000000000000000000, 0.0000000000000000000, -1.000000000000000000 ) ) ;
#182 = ORIENTED_EDGE ( 'NONE', *, *, #240, .F. ) ;
#183 = EDGE_LOOP ( 'NONE', ( #349, #263 ) ) ;
#184 = CARTESIAN_POINT ( 'NONE',  ( 0.0000000000000000000, 7.000000000000000000, -15.00000000000000000 ) ) ;
#185 = AXIS2_PLACEMENT_3D ( 'NONE', #230, #223, #222 ) ;
#186 = DIRECTION ( 'NONE',  ( 0.0000000000000000000, 0.0000000000000000000, 1.000000000000000000 ) ) ;
#187 = AXIS2_PLACEMENT_3D ( 'NONE', #204, #203, #202 ) ;
#188 = CIRCLE ( 'NONE', #346, 15.00000000000000000 ) ;
#189 = DIRECTION ( 'NONE',  ( 0.0000000000000000000, 1.000000000000000000, 0.0000000000000000000 ) ) ;
#190 = AXIS2_PLACEMENT_3D ( 'NONE', #250, #248, #180 ) ;
#191 = EDGE_LOOP ( 'NONE', ( #368, #147 ) ) ;
#192 = EDGE_LOOP ( 'NONE', ( #320, #48, #13, #234 ) ) ;
#193 = CARTESIAN_POINT ( 'NONE',  ( 0.0000000000000000000, 93.00000000000000000, 0.0000000000000000000 ) ) ;
#194 = EDGE_CURVE ( 'NONE', #148, #221, #124, .T. ) ;
#195 = EDGE_LOOP ( 'NONE', ( #49, #206, #363, #60 ) ) ;
#196 = EDGE_CURVE ( 'NONE', #311, #373, #109, .T. ) ;
#197 = CARTESIAN_POINT ( 'NONE',  ( 1.836970198721029600E-015, 7.000000000000000000, 15.00000000000000000 ) ) ;
#198 = ORIENTED_EDGE ( 'NONE', *, *, #293, .F. ) ;
#199 = AXIS2_PLACEMENT_3D ( 'NONE', #88, #85, #83 ) ;
#200 = VERTEX_POINT ( 'NONE', #201 ) ;
#201 = CARTESIAN_POINT ( 'NONE',  ( 1.714505518806294600E-015, 100.0000000000000000, 14.00000000000000000 ) ) ;
#202 = DIRECTION ( 'NONE',  ( 0.0000000000000000000, 0.0000000000000000000, 1.000000000000000000 ) ) ;
#203 = DIRECTION ( 'NONE',  ( 0.0000000000000000000, 1.000000000000000000, 0.0000000000000000000 ) ) ;
#204 = CARTESIAN_POINT ( 'NONE',  ( 0.0000000000000000000, 100.0000000000000000, 0.0000000000000000000 ) ) ;
#205 = EDGE_LOOP ( 'NONE', ( #133, #30, #75, #356 ) ) ;
#206 = ORIENTED_EDGE ( 'NONE', *, *, #194, .T. ) ;
#207 = EDGE_CURVE ( 'NONE', #79, #178, #120, .T. ) ;
#208 = DIRECTION ( 'NONE',  ( -0.0000000000000000000, -1.000000000000000000, -0.0000000000000000000 ) ) ;
#209 = AXIS2_PLACEMENT_3D ( 'NONE', #134, #129, #126 ) ;
#210 = EDGE_CURVE ( 'NONE', #148, #14, #105, .T. ) ;
#211 = ORIENTED_EDGE ( 'NONE', *, *, #315, .F. ) ;
#212 = PRESENTATION_STYLE_ASSIGNMENT (( #343 ) ) ;
#213 = DIRECTION ( 'NONE',  ( 0.0000000000000000000, 0.0000000000000000000, -1.000000000000000000 ) ) ;
#214 = AXIS2_PLACEMENT_3D ( 'NONE', #39, #38, #37 ) ;
#215 =( NAMED_UNIT ( * ) SI_UNIT ( $, .STERADIAN. ) SOLID_ANGLE_UNIT ( ) );
#216 = EDGE_CURVE ( 'NONE', #14, #233, #101, .T. ) ;
#217 = VERTEX_POINT ( 'NONE', #98 ) ;
#218 = CARTESIAN_POINT ( 'NONE',  ( 0.0000000000000000000, 100.0000000000000000, -14.00000000000000000 ) ) ;
#219 = DIRECTION ( 'NONE',  ( -0.0000000000000000000, -1.000000000000000000, -0.0000000000000000000 ) ) ;
#220 = DIRECTION ( 'NONE',  ( 0.0000000000000000000, -0.0000000000000000000, -1.000000000000000000 ) ) ;
#221 = VERTEX_POINT ( 'NONE', #93 ) ;
#222 = DIRECTION ( 'NONE',  ( 0.0000000000000000000, 0.0000000000000000000, -1.000000000000000000 ) ) ;
#223 = DIRECTION ( 'NONE',  ( 0.0000000000000000000, -1.000000000000000000, 0.0000000000000000000 ) ) ;
#224 = FACE_OUTER_BOUND ( 'NONE', #205, .T. ) ;
#225 = ORIENTED_EDGE ( 'NONE', *, *, #210, .T. ) ;
#226 = UNCERTAINTY_MEASURE_WITH_UNIT (LENGTH_MEASURE( 1.000000000000000100E-005 ), #82, 'distance_accuracy_value', 'NONE');
#227 = ADVANCED_FACE ( 'NONE', ( #80 ), #54, .T. ) ;
#228 = EDGE_LOOP ( 'NONE', ( #71, #357 ) ) ;
#229 = LINE ( 'NONE', #218, #316 ) ;
#230 = CARTESIAN_POINT ( 'NONE',  ( 0.0000000000000000000, 7.000000000000006200, 0.0000000000000000000 ) ) ;
#231 = DIRECTION ( 'NONE',  ( 0.0000000000000000000, 0.0000000000000000000, -1.000000000000000000 ) ) ;
#232 = MANIFOLD_SOLID_BREP ( 'ÇÐ³ý-À­Éì2', #3 ) ;
#233 = VERTEX_POINT ( 'NONE', #55 ) ;
#234 = ORIENTED_EDGE ( 'NONE', *, *, #196, .F. ) ;
#235 = AXIS2_PLACEMENT_3D ( 'NONE', #193, #189, #186 ) ;
#236 = ORIENTED_EDGE ( 'NONE', *, *, #240, .T. ) ;
#237 = EDGE_CURVE ( 'NONE', #217, #78, #61, .T. ) ;
#238 = CIRCLE ( 'NONE', #359, 16.00000000000000000 ) ;
#239 =( NAMED_UNIT ( * ) PLANE_ANGLE_UNIT ( ) SI_UNIT ( $, .RADIAN. ) );
#240 = EDGE_CURVE ( 'NONE', #178, #339, #94, .T. ) ;
#241 = EDGE_CURVE ( 'NONE', #79, #152, #113, .T. ) ;
#242 = DIRECTION ( 'NONE',  ( 0.0000000000000000000, 0.0000000000000000000, 1.000000000000000000 ) ) ;
#243 = DIRECTION ( 'NONE',  ( 0.0000000000000000000, 0.0000000000000000000, 1.000000000000000000 ) ) ;
#244 = EDGE_LOOP ( 'NONE', ( #321, #56, #278, #332 ) ) ;
#245 = DIRECTION ( 'NONE',  ( 0.0000000000000000000, 1.000000000000000000, 0.0000000000000000000 ) ) ;
#246 = EDGE_LOOP ( 'NONE', ( #92, #236, #47, #317 ) ) ;
#247 = CARTESIAN_POINT ( 'NONE',  ( 0.0000000000000000000, 100.0000000000000000, 0.0000000000000000000 ) ) ;
#248 = DIRECTION ( 'NONE',  ( 0.0000000000000000000, 1.000000000000000000, 0.0000000000000000000 ) ) ;
#249 = ADVANCED_FACE ( 'NONE', ( #8 ), #44, .T. ) ;
#250 = CARTESIAN_POINT ( 'NONE',  ( 0.0000000000000000000, 0.0000000000000000000, 0.0000000000000000000 ) ) ;
#251 = EDGE_LOOP ( 'NONE', ( #170, #24 ) ) ;
#252 = VERTEX_POINT ( 'NONE', #22 ) ;
#253 = CARTESIAN_POINT ( 'NONE',  ( 0.0000000000000000000, 7.000000000000006200, -16.00000000000000000 ) ) ;
#254 = ORIENTED_EDGE ( 'NONE', *, *, #138, .T. ) ;
#255 = DIRECTION ( 'NONE',  ( 0.0000000000000000000, 0.0000000000000000000, 1.000000000000000000 ) ) ;
#256 = ADVANCED_FACE ( 'NONE', ( #305, #135 ), #29, .F. ) ;
#257 = DIRECTION ( 'NONE',  ( 0.0000000000000000000, 1.000000000000000000, 0.0000000000000000000 ) ) ;
#258 = CARTESIAN_POINT ( 'NONE',  ( 0.0000000000000000000, 93.00000000000000000, 0.0000000000000000000 ) ) ;
#259 = AXIS2_PLACEMENT_3D ( 'NONE', #318, #330, #353 ) ;
#260 = FACE_OUTER_BOUND ( 'NONE', #192, .T. ) ;
#261 = EDGE_CURVE ( 'NONE', #221, #233, #370, .T. ) ;
#262 = VECTOR ( 'NONE', #35, 1000.000000000000000 ) ;
#263 = ORIENTED_EDGE ( 'NONE', *, *, #300, .F. ) ;
#264 = AXIS2_PLACEMENT_3D ( 'NONE', #287, #267, #231 ) ;
#265 = EDGE_LOOP ( 'NONE', ( #45, #95 ) ) ;
#266 = CARTESIAN_POINT ( 'NONE',  ( 1.836970198721029600E-015, 93.00000000000000000, -15.00000000000000000 ) ) ;
#267 = DIRECTION ( 'NONE',  ( -0.0000000000000000000, -1.000000000000000000, -0.0000000000000000000 ) ) ;
#268 = AXIS2_PLACEMENT_3D ( 'NONE', #117, #114, #112 ) ;
#269 = AXIS2_PLACEMENT_3D ( 'NONE', #81, #100, #77 ) ;
#270 = COLOUR_RGB ( '',1.000000000000000000, 1.000000000000000000, 1.000000000000000000 ) ;
#271 = FILL_AREA_STYLE_COLOUR ( '', #270 ) ;
#272 = EDGE_CURVE ( 'NONE', #373, #311, #33, .T. ) ;
#273 = SURFACE_STYLE_FILL_AREA ( #307 ) ;
#274 = PRODUCT_CONTEXT ( 'NONE', #118, 'mechanical' ) ;
#275 = EDGE_CURVE ( 'NONE', #333, #355, #64, .T. ) ;
#276 = DIRECTION ( 'NONE',  ( -0.0000000000000000000, -1.000000000000000000, -0.0000000000000000000 ) ) ;
#277 = DIRECTION ( 'NONE',  ( 0.0000000000000000000, -1.000000000000000000, 0.0000000000000000000 ) ) ;
#278 = ORIENTED_EDGE ( 'NONE', *, *, #237, .F. ) ;
#279 = AXIS2_PLACEMENT_3D ( 'NONE', #247, #245, #242 ) ;
#280 = DIRECTION ( 'NONE',  ( 0.0000000000000000000, 0.0000000000000000000, -1.000000000000000000 ) ) ;
#281 = CARTESIAN_POINT ( 'NONE',  ( 1.836970198721029600E-015, 7.000000000000000000, 15.00000000000000000 ) ) ;
#282 = CARTESIAN_POINT ( 'NONE',  ( 0.0000000000000000000, 100.0000000000000000, 0.0000000000000000000 ) ) ;
#283 = DIRECTION ( 'NONE',  ( 0.0000000000000000000, 0.0000000000000000000, -1.000000000000000000 ) ) ;
#284 = ADVANCED_FACE ( 'NONE', ( #294, #145 ), #351, .T. ) ;
#285 = DIRECTION ( 'NONE',  ( -0.0000000000000000000, -1.000000000000000000, -0.0000000000000000000 ) ) ;
#286 = EDGE_CURVE ( 'NONE', #333, #217, #165, .T. ) ;
#287 = CARTESIAN_POINT ( 'NONE',  ( 0.0000000000000000000, 7.000000000000000000, 0.0000000000000000000 ) ) ;
#288 = EDGE_LOOP ( 'NONE', ( #182, #141, #65, #211 ) ) ;
#289 = AXIS2_PLACEMENT_3D ( 'NONE', #107, #104, #102 ) ;
#290 = DIRECTION ( 'NONE',  ( -0.0000000000000000000, -1.000000000000000000, -0.0000000000000000000 ) ) ;
#291 = STYLED_ITEM ( 'NONE', ( #46 ), #232 ) ;
#292 = CARTESIAN_POINT ( 'NONE',  ( 0.0000000000000000000, 7.000000000000000000, 0.0000000000000000000 ) ) ;
#293 = EDGE_CURVE ( 'NONE', #252, #373, #229, .T. ) ;
#294 = FACE_BOUND ( 'NONE', #191, .T. ) ;
#295 = APPLICATION_PROTOCOL_DEFINITION ( 'draft international standard', 'automotive_design', 1998, #86 ) ;
#296 = DIRECTION ( 'NONE',  ( 0.0000000000000000000, -1.000000000000000000, 0.0000000000000000000 ) ) ;
#297 = CARTESIAN_POINT ( 'NONE',  ( 1.959434878635765100E-015, 7.000000000000006200, 16.00000000000000000 ) ) ;
#298 = DIRECTION ( 'NONE',  ( 0.0000000000000000000, 0.0000000000000000000, 1.000000000000000000 ) ) ;
#299 = VECTOR ( 'NONE', #150, 1000.000000000000000 ) ;
#300 = EDGE_CURVE ( 'NONE', #200, #252, #301, .T. ) ;
#301 = CIRCLE ( 'NONE', #362, 14.00000000000000000 ) ;
#302 = DIRECTION ( 'NONE',  ( 0.0000000000000000000, 0.0000000000000000000, -1.000000000000000000 ) ) ;
#303 = CARTESIAN_POINT ( 'NONE',  ( 0.0000000000000000000, 93.00000000000000000, -16.00000000000000000 ) ) ;
#304 = CARTESIAN_POINT ( 'NONE',  ( 1.836970198721029600E-015, 0.0000000000000000000, 15.00000000000000000 ) ) ;
#305 = FACE_BOUND ( 'NONE', #26, .T. ) ;
#306 = DIRECTION ( 'NONE',  ( 0.0000000000000000000, 0.0000000000000000000, -1.000000000000000000 ) ) ;
#307 = FILL_AREA_STYLE ('',( #271 ) ) ;
#308 = ORIENTED_EDGE ( 'NONE', *, *, #216, .T. ) ;
#309 = DIRECTION ( 'NONE',  ( 0.0000000000000000000, 0.0000000000000000000, -1.000000000000000000 ) ) ;
#310 = CARTESIAN_POINT ( 'NONE',  ( 1.714505518806294600E-015, 100.0000000000000000, 14.00000000000000000 ) ) ;
#311 = VERTEX_POINT ( 'NONE', #58 ) ;
#312 = CARTESIAN_POINT ( 'NONE',  ( 0.0000000000000000000, 7.000000000000000000, 0.0000000000000000000 ) ) ;
#313 = CARTESIAN_POINT ( 'NONE',  ( 0.0000000000000000000, 100.0000000000000000, 0.0000000000000000000 ) ) ;
#314 = ORIENTED_EDGE ( 'NONE', *, *, #237, .T. ) ;
#315 = EDGE_CURVE ( 'NONE', #339, #152, #238, .T. ) ;
#316 = VECTOR ( 'NONE', #11, 1000.000000000000000 ) ;
#317 = ORIENTED_EDGE ( 'NONE', *, *, #241, .F. ) ;
#318 = CARTESIAN_POINT ( 'NONE',  ( 0.0000000000000000000, 93.00000000000000000, 0.0000000000000000000 ) ) ;
#319 = ADVANCED_FACE ( 'NONE', ( #224 ), #52, .T. ) ;
#320 = ORIENTED_EDGE ( 'NONE', *, *, #99, .F. ) ;
#321 = ORIENTED_EDGE ( 'NONE', *, *, #275, .T. ) ;
#322 = CYLINDRICAL_SURFACE ( 'NONE', #345, 15.00000000000000000 ) ;
#323 = PRODUCT_RELATED_PRODUCT_CATEGORY ( 'part', '', ( #143 ) ) ;
#324 = CARTESIAN_POINT ( 'NONE',  ( 0.0000000000000000000, 100.0000000000000000, 0.0000000000000000000 ) ) ;
#325 = EDGE_LOOP ( 'NONE', ( #314, #59 ) ) ;
#326 = PRODUCT_DEFINITION_FORMATION_WITH_SPECIFIED_SOURCE ( 'ÈÎºÎ', '', #143, .NOT_KNOWN. ) ;
#327 = PRODUCT_DEFINITION ( 'Î´Öª', '', #326, #174 ) ;
#328 = PLANE ( 'NONE',  #259 ) ;
#329 = AXIS2_PLACEMENT_3D ( 'NONE', #340, #243, #53 ) ;
#330 = DIRECTION ( 'NONE',  ( 0.0000000000000000000, 1.000000000000000000, 0.0000000000000000000 ) ) ;
#331 =( GEOMETRIC_REPRESENTATION_CONTEXT ( 3 ) GLOBAL_UNCERTAINTY_ASSIGNED_CONTEXT ( ( #41 ) ) GLOBAL_UNIT_ASSIGNED_CONTEXT ( ( #176, #6, #215 ) ) REPRESENTATION_CONTEXT ( 'NONE', 'WORKASPACE' ) );
#332 = ORIENTED_EDGE ( 'NONE', *, *, #286, .F. ) ;
#333 = VERTEX_POINT ( 'NONE', #9 ) ;
#334 = CARTESIAN_POINT ( 'NONE',  ( 1.836970198721029600E-015, 100.0000000000000000, -15.00000000000000000 ) ) ;
#335 = ORIENTED_EDGE ( 'NONE', *, *, #196, .T. ) ;
#336 = MECHANICAL_DESIGN_GEOMETRIC_PRESENTATION_REPRESENTATION (  '', ( #341 ), #331 ) ;
#337 = CARTESIAN_POINT ( 'NONE',  ( 0.0000000000000000000, 100.0000000000000000, 0.0000000000000000000 ) ) ;
#338 = PRESENTATION_LAYER_ASSIGNMENT (  '', '', ( #341 ) ) ;
#339 = VERTEX_POINT ( 'NONE', #297 ) ;
#340 = CARTESIAN_POINT ( 'NONE',  ( 0.0000000000000000000, 0.0000000000000000000, 0.0000000000000000000 ) ) ;
#341 = STYLED_ITEM ( 'NONE', ( #212 ), #110 ) ;
#342 = DIRECTION ( 'NONE',  ( -0.0000000000000000000, -1.000000000000000000, -0.0000000000000000000 ) ) ;
#343 = SURFACE_STYLE_USAGE ( .BOTH. , #146 ) ;
#344 =( GEOMETRIC_REPRESENTATION_CONTEXT ( 3 ) GLOBAL_UNCERTAINTY_ASSIGNED_CONTEXT ( ( #226 ) ) GLOBAL_UNIT_ASSIGNED_CONTEXT ( ( #82, #239, #51 ) ) REPRESENTATION_CONTEXT ( 'NONE', 'WORKASPACE' ) );
#345 = AXIS2_PLACEMENT_3D ( 'NONE', #31, #171, #2 ) ;
#346 = AXIS2_PLACEMENT_3D ( 'NONE', #292, #115, #306 ) ;
#347 = UNCERTAINTY_MEASURE_WITH_UNIT (LENGTH_MEASURE( 1.000000000000000100E-005 ), #66, 'distance_accuracy_value', 'NONE');
#348 = AXIS2_PLACEMENT_3D ( 'NONE', #313, #91, #34 ) ;
#349 = ORIENTED_EDGE ( 'NONE', *, *, #138, .F. ) ;
#350 = ADVANCED_FACE ( 'NONE', ( #172, #156 ), #122, .T. ) ;
#351 = PLANE ( 'NONE',  #361 ) ;
#352 = AXIS2_PLACEMENT_3D ( 'NONE', #90, #219, #181 ) ;
#353 = DIRECTION ( 'NONE',  ( 0.0000000000000000000, -0.0000000000000000000, 1.000000000000000000 ) ) ;
#354 = DIRECTION ( 'NONE',  ( 0.0000000000000000000, 0.0000000000000000000, -1.000000000000000000 ) ) ;
#355 = VERTEX_POINT ( 'NONE', #281 ) ;
#356 = ORIENTED_EDGE ( 'NONE', *, *, #372, .F. ) ;
#357 = ORIENTED_EDGE ( 'NONE', *, *, #315, .T. ) ;
#358 = AXIS2_PLACEMENT_3D ( 'NONE', #173, #5, #213 ) ;
#359 = AXIS2_PLACEMENT_3D ( 'NONE', #57, #97, #354 ) ;
#360 = VECTOR ( 'NONE', #4, 1000.000000000000000 ) ;
#361 = AXIS2_PLACEMENT_3D ( 'NONE', #96, #277, #220 ) ;
#362 = AXIS2_PLACEMENT_3D ( 'NONE', #12, #10, #298 ) ;
#363 = ORIENTED_EDGE ( 'NONE', *, *, #261, .T. ) ;
#364 = ADVANCED_FACE ( 'NONE', ( #106 ), #322, .T. ) ;
#365 = AXIS2_PLACEMENT_3D ( 'NONE', #312, #296, #280 ) ;
#366 = AXIS2_PLACEMENT_3D ( 'NONE', #324, #285, #302 ) ;
#367 = AXIS2_PLACEMENT_3D ( 'NONE', #20, #16, #15 ) ;
#368 = ORIENTED_EDGE ( 'NONE', *, *, #275, .F. ) ;
#369 = EDGE_CURVE ( 'NONE', #355, #333, #188, .T. ) ;
#370 = LINE ( 'NONE', #7, #360 ) ;
#371 = AXIS2_PLACEMENT_3D ( 'NONE', #36, #27, #43 ) ;
#372 = EDGE_CURVE ( 'NONE', #78, #217, #19, .T. ) ;
#373 = VERTEX_POINT ( 'NONE', #25 ) ;
#374 =( GEOMETRIC_REPRESENTATION_CONTEXT ( 3 ) GLOBAL_UNCERTAINTY_ASSIGNED_CONTEXT ( ( #347 ) ) GLOBAL_UNIT_ASSIGNED_CONTEXT ( ( #66, #63, #62 ) ) REPRESENTATION_CONTEXT ( 'NONE', 'WORKASPACE' ) );
ENDSEC;
END-ISO-10303-21;
