ISO-10303-21;
HEADER;
FILE_DESCRIPTION (( 'STEP AP214' ),
    '1' );
FILE_NAME ('Z threaded rod.step',
    '2018-06-21T13:00:20',
    ( 'User' ),
    ( 'china' ),
    'SwSTEP 2.0',
    'SolidWorks 2016',
    '' );
FILE_SCHEMA (( 'AUTOMOTIVE_DESIGN' ));
ENDSEC;

DATA;
#1 = PRESENTATION_STYLE_ASSIGNMENT (( #20 ) ) ;
#2 = ADVANCED_FACE ( 'NONE', ( #11 ), #22, .T. ) ;
#3 = CARTESIAN_POINT ( 'NONE',  ( 0.0000000000000000000, 0.0000000000000000000, 0.0000000000000000000 ) ) ;
#4 = SURFACE_STYLE_FILL_AREA ( #29 ) ;
#5 = DIRECTION ( 'NONE',  ( 0.0000000000000000000, 0.0000000000000000000, 1.000000000000000000 ) ) ;
#6 = COLOUR_RGB ( '',0.7960784313725489700, 0.8235294117647058400, 0.9372549019607843100 ) ;
#7 = EDGE_LOOP ( 'NONE', ( #84, #106, #122, #71 ) ) ;
#8 = CARTESIAN_POINT ( 'NONE',  ( 0.0000000000000000000, 0.0000000000000000000, 370.0000000000000000 ) ) ;
#9 = ORIENTED_EDGE ( 'NONE', *, *, #117, .F. ) ;
#10 = PRODUCT_DEFINITION ( 'Î´Öª', '', #125, #38 ) ;
#11 = FACE_OUTER_BOUND ( 'NONE', #94, .T. ) ;
#12 = MECHANICAL_DESIGN_GEOMETRIC_PRESENTATION_REPRESENTATION (  '', ( #131 ), #30 ) ;
#13 = UNCERTAINTY_MEASURE_WITH_UNIT (LENGTH_MEASURE( 1.000000000000000100E-005 ), #18, 'distance_accuracy_value', 'NONE');
#14 = DIRECTION ( 'NONE',  ( 0.0000000000000000000, 0.0000000000000000000, 1.000000000000000000 ) ) ;
#15 = CIRCLE ( 'NONE', #56, 4.000000000000000000 ) ;
#16 = APPLICATION_PROTOCOL_DEFINITION ( 'draft international standard', 'automotive_design', 1998, #31 ) ;
#17 =( NAMED_UNIT ( * ) PLANE_ANGLE_UNIT ( ) SI_UNIT ( $, .RADIAN. ) );
#18 =( LENGTH_UNIT ( ) NAMED_UNIT ( * ) SI_UNIT ( .MILLI., .METRE. ) );
#19 = AXIS2_PLACEMENT_3D ( 'NONE', #53, #79, #50 ) ;
#20 = SURFACE_STYLE_USAGE ( .BOTH. , #27 ) ;
#21 = FACE_OUTER_BOUND ( 'NONE', #7, .T. ) ;
#22 = CYLINDRICAL_SURFACE ( 'NONE', #120, 4.000000000000000000 ) ;
#23 = AXIS2_PLACEMENT_3D ( 'NONE', #61, #101, #104 ) ;
#24 =( NAMED_UNIT ( * ) SI_UNIT ( $, .STERADIAN. ) SOLID_ANGLE_UNIT ( ) );
#25 =( NAMED_UNIT ( * ) PLANE_ANGLE_UNIT ( ) SI_UNIT ( $, .RADIAN. ) );
#26 = DIRECTION ( 'NONE',  ( 0.0000000000000000000, 0.0000000000000000000, -1.000000000000000000 ) ) ;
#27 = SURFACE_SIDE_STYLE ('',( #4 ) ) ;
#28 = ADVANCED_BREP_SHAPE_REPRESENTATION ( 'Z threaded rod', ( #44, #23 ), #91 ) ;
#29 = FILL_AREA_STYLE ('',( #49 ) ) ;
#30 =( GEOMETRIC_REPRESENTATION_CONTEXT ( 3 ) GLOBAL_UNCERTAINTY_ASSIGNED_CONTEXT ( ( #13 ) ) GLOBAL_UNIT_ASSIGNED_CONTEXT ( ( #18, #17, #32 ) ) REPRESENTATION_CONTEXT ( 'NONE', 'WORKASPACE' ) );
#31 = APPLICATION_CONTEXT ( 'automotive_design' ) ;
#32 =( NAMED_UNIT ( * ) SI_UNIT ( $, .STERADIAN. ) SOLID_ANGLE_UNIT ( ) );
#33 = UNCERTAINTY_MEASURE_WITH_UNIT (LENGTH_MEASURE( 1.000000000000000100E-005 ), #43, 'distance_accuracy_value', 'NONE');
#34 = PRODUCT_DEFINITION_SHAPE ( 'NONE', 'NONE',  #10 ) ;
#35 = ADVANCED_FACE ( 'NONE', ( #86 ), #72, .T. ) ;
#36 = DIRECTION ( 'NONE',  ( 1.000000000000000000, 0.0000000000000000000, 0.0000000000000000000 ) ) ;
#37 = VERTEX_POINT ( 'NONE', #82 ) ;
#38 = PRODUCT_DEFINITION_CONTEXT ( 'detailed design', #130, 'design' ) ;
#39 = EDGE_LOOP ( 'NONE', ( #107, #62 ) ) ;
#40 = PRODUCT ( 'Z threaded rod', 'Z threaded rod', '', ( #126 ) ) ;
#41 = ADVANCED_FACE ( 'NONE', ( #87 ), #80, .F. ) ;
#42 = CARTESIAN_POINT ( 'NONE',  ( -4.000000000000000000, 0.0000000000000000000, 370.0000000000000000 ) ) ;
#43 =( LENGTH_UNIT ( ) NAMED_UNIT ( * ) SI_UNIT ( .MILLI., .METRE. ) );
#44 = MANIFOLD_SOLID_BREP ( 'ÊäÈë1', #59 ) ;
#45 = COLOUR_RGB ( '',0.7960784313725489700, 0.8235294117647058400, 0.9372549019607843100 ) ;
#46 = ORIENTED_EDGE ( 'NONE', *, *, #116, .F. ) ;
#47 = LINE ( 'NONE', #60, #115 ) ;
#48 = CARTESIAN_POINT ( 'NONE',  ( 0.0000000000000000000, 0.0000000000000000000, 370.0000000000000000 ) ) ;
#49 = FILL_AREA_STYLE_COLOUR ( '', #6 ) ;
#50 = DIRECTION ( 'NONE',  ( -1.000000000000000000, 0.0000000000000000000, 0.0000000000000000000 ) ) ;
#51 = CARTESIAN_POINT ( 'NONE',  ( 0.0000000000000000000, 0.0000000000000000000, 0.0000000000000000000 ) ) ;
#52 = DIRECTION ( 'NONE',  ( 0.0000000000000000000, 0.0000000000000000000, 1.000000000000000000 ) ) ;
#53 = CARTESIAN_POINT ( 'NONE',  ( 0.0000000000000000000, 0.0000000000000000000, 370.0000000000000000 ) ) ;
#54 = UNCERTAINTY_MEASURE_WITH_UNIT (LENGTH_MEASURE( 1.000000000000000100E-005 ), #67, 'distance_accuracy_value', 'NONE');
#55 = CYLINDRICAL_SURFACE ( 'NONE', #19, 4.000000000000000000 ) ;
#56 = AXIS2_PLACEMENT_3D ( 'NONE', #3, #135, #133 ) ;
#57 = DIRECTION ( 'NONE',  ( 1.000000000000000000, 0.0000000000000000000, 0.0000000000000000000 ) ) ;
#58 = EDGE_CURVE ( 'NONE', #37, #97, #128, .T. ) ;
#59 = CLOSED_SHELL ( 'NONE', ( #78, #2, #35, #41 ) ) ;
#60 = CARTESIAN_POINT ( 'NONE',  ( 4.000000000000000000, 4.898587196589412800E-016, 370.0000000000000000 ) ) ;
#61 = CARTESIAN_POINT ( 'NONE',  ( 0.0000000000000000000, 0.0000000000000000000, 0.0000000000000000000 ) ) ;
#62 = ORIENTED_EDGE ( 'NONE', *, *, #112, .F. ) ;
#63 =( NAMED_UNIT ( * ) SI_UNIT ( $, .STERADIAN. ) SOLID_ANGLE_UNIT ( ) );
#64 =( NAMED_UNIT ( * ) PLANE_ANGLE_UNIT ( ) SI_UNIT ( $, .RADIAN. ) );
#65 = ORIENTED_EDGE ( 'NONE', *, *, #116, .T. ) ;
#66 = SHAPE_DEFINITION_REPRESENTATION ( #34, #28 ) ;
#67 =( LENGTH_UNIT ( ) NAMED_UNIT ( * ) SI_UNIT ( .MILLI., .METRE. ) );
#68 = SURFACE_STYLE_USAGE ( .BOTH. , #69 ) ;
#69 = SURFACE_SIDE_STYLE ('',( #85 ) ) ;
#70 = FILL_AREA_STYLE ('',( #83 ) ) ;
#71 = ORIENTED_EDGE ( 'NONE', *, *, #105, .F. ) ;
#72 = PLANE ( 'NONE',  #109 ) ;
#73 = DIRECTION ( 'NONE',  ( 1.000000000000000000, 0.0000000000000000000, 0.0000000000000000000 ) ) ;
#74 = CARTESIAN_POINT ( 'NONE',  ( 0.0000000000000000000, 0.0000000000000000000, 370.0000000000000000 ) ) ;
#75 = VECTOR ( 'NONE', #123, 1000.000000000000000 ) ;
#76 = DIRECTION ( 'NONE',  ( -1.000000000000000000, 0.0000000000000000000, 0.0000000000000000000 ) ) ;
#77 = DIRECTION ( 'NONE',  ( 0.0000000000000000000, 0.0000000000000000000, 1.000000000000000000 ) ) ;
#78 = ADVANCED_FACE ( 'NONE', ( #21 ), #55, .T. ) ;
#79 = DIRECTION ( 'NONE',  ( 0.0000000000000000000, 0.0000000000000000000, -1.000000000000000000 ) ) ;
#80 = PLANE ( 'NONE',  #134 ) ;
#81 =( GEOMETRIC_REPRESENTATION_CONTEXT ( 3 ) GLOBAL_UNCERTAINTY_ASSIGNED_CONTEXT ( ( #54 ) ) GLOBAL_UNIT_ASSIGNED_CONTEXT ( ( #67, #64, #63 ) ) REPRESENTATION_CONTEXT ( 'NONE', 'WORKASPACE' ) );
#82 = CARTESIAN_POINT ( 'NONE',  ( -4.000000000000000000, 0.0000000000000000000, 0.0000000000000000000 ) ) ;
#83 = FILL_AREA_STYLE_COLOUR ( '', #45 ) ;
#84 = ORIENTED_EDGE ( 'NONE', *, *, #118, .F. ) ;
#85 = SURFACE_STYLE_FILL_AREA ( #70 ) ;
#86 = FACE_OUTER_BOUND ( 'NONE', #140, .T. ) ;
#87 = FACE_OUTER_BOUND ( 'NONE', #39, .T. ) ;
#88 = CARTESIAN_POINT ( 'NONE',  ( 0.0000000000000000000, 0.0000000000000000000, 370.0000000000000000 ) ) ;
#89 = PRODUCT_RELATED_PRODUCT_CATEGORY ( 'part', '', ( #40 ) ) ;
#90 = DIRECTION ( 'NONE',  ( 1.000000000000000000, 0.0000000000000000000, 0.0000000000000000000 ) ) ;
#91 =( GEOMETRIC_REPRESENTATION_CONTEXT ( 3 ) GLOBAL_UNCERTAINTY_ASSIGNED_CONTEXT ( ( #33 ) ) GLOBAL_UNIT_ASSIGNED_CONTEXT ( ( #43, #25, #24 ) ) REPRESENTATION_CONTEXT ( 'NONE', 'WORKASPACE' ) );
#92 = DIRECTION ( 'NONE',  ( 1.000000000000000000, 0.0000000000000000000, 0.0000000000000000000 ) ) ;
#93 = CARTESIAN_POINT ( 'NONE',  ( 0.0000000000000000000, 0.0000000000000000000, 0.0000000000000000000 ) ) ;
#94 = EDGE_LOOP ( 'NONE', ( #9, #46, #129, #103 ) ) ;
#95 = MECHANICAL_DESIGN_GEOMETRIC_PRESENTATION_REPRESENTATION (  '', ( #136 ), #81 ) ;
#96 = PRESENTATION_LAYER_ASSIGNMENT (  '', '', ( #136 ) ) ;
#97 = VERTEX_POINT ( 'NONE', #108 ) ;
#98 = ORIENTED_EDGE ( 'NONE', *, *, #118, .T. ) ;
#99 = VERTEX_POINT ( 'NONE', #121 ) ;
#100 = VERTEX_POINT ( 'NONE', #42 ) ;
#101 = DIRECTION ( 'NONE',  ( 0.0000000000000000000, 0.0000000000000000000, 1.000000000000000000 ) ) ;
#102 = DIRECTION ( 'NONE',  ( 0.0000000000000000000, 0.0000000000000000000, 1.000000000000000000 ) ) ;
#103 = ORIENTED_EDGE ( 'NONE', *, *, #58, .T. ) ;
#104 = DIRECTION ( 'NONE',  ( 1.000000000000000000, 0.0000000000000000000, 0.0000000000000000000 ) ) ;
#105 = EDGE_CURVE ( 'NONE', #100, #37, #139, .T. ) ;
#106 = ORIENTED_EDGE ( 'NONE', *, *, #117, .T. ) ;
#107 = ORIENTED_EDGE ( 'NONE', *, *, #58, .F. ) ;
#108 = CARTESIAN_POINT ( 'NONE',  ( 4.000000000000000000, 4.898587196589412800E-016, 0.0000000000000000000 ) ) ;
#109 = AXIS2_PLACEMENT_3D ( 'NONE', #74, #102, #90 ) ;
#110 = APPLICATION_PROTOCOL_DEFINITION ( 'draft international standard', 'automotive_design', 1998, #130 ) ;
#111 = CARTESIAN_POINT ( 'NONE',  ( -4.000000000000000000, 0.0000000000000000000, 370.0000000000000000 ) ) ;
#112 = EDGE_CURVE ( 'NONE', #97, #37, #15, .T. ) ;
#113 = AXIS2_PLACEMENT_3D ( 'NONE', #8, #5, #57 ) ;
#114 = CIRCLE ( 'NONE', #113, 4.000000000000000000 ) ;
#115 = VECTOR ( 'NONE', #119, 1000.000000000000000 ) ;
#116 = EDGE_CURVE ( 'NONE', #100, #99, #114, .T. ) ;
#117 = EDGE_CURVE ( 'NONE', #99, #97, #47, .T. ) ;
#118 = EDGE_CURVE ( 'NONE', #99, #100, #132, .T. ) ;
#119 = DIRECTION ( 'NONE',  ( 0.0000000000000000000, 0.0000000000000000000, -1.000000000000000000 ) ) ;
#120 = AXIS2_PLACEMENT_3D ( 'NONE', #88, #26, #76 ) ;
#121 = CARTESIAN_POINT ( 'NONE',  ( 4.000000000000000000, 4.898587196589412800E-016, 370.0000000000000000 ) ) ;
#122 = ORIENTED_EDGE ( 'NONE', *, *, #112, .T. ) ;
#123 = DIRECTION ( 'NONE',  ( 0.0000000000000000000, 0.0000000000000000000, -1.000000000000000000 ) ) ;
#124 = AXIS2_PLACEMENT_3D ( 'NONE', #48, #14, #36 ) ;
#125 = PRODUCT_DEFINITION_FORMATION_WITH_SPECIFIED_SOURCE ( 'ÈÎºÎ', '', #40, .NOT_KNOWN. ) ;
#126 = PRODUCT_CONTEXT ( 'NONE', #31, 'mechanical' ) ;
#127 = PRESENTATION_STYLE_ASSIGNMENT (( #68 ) ) ;
#128 = CIRCLE ( 'NONE', #138, 4.000000000000000000 ) ;
#129 = ORIENTED_EDGE ( 'NONE', *, *, #105, .T. ) ;
#130 = APPLICATION_CONTEXT ( 'automotive_design' ) ;
#131 = STYLED_ITEM ( 'NONE', ( #1 ), #28 ) ;
#132 = CIRCLE ( 'NONE', #124, 4.000000000000000000 ) ;
#133 = DIRECTION ( 'NONE',  ( 1.000000000000000000, 0.0000000000000000000, 0.0000000000000000000 ) ) ;
#134 = AXIS2_PLACEMENT_3D ( 'NONE', #93, #77, #73 ) ;
#135 = DIRECTION ( 'NONE',  ( 0.0000000000000000000, 0.0000000000000000000, 1.000000000000000000 ) ) ;
#136 = STYLED_ITEM ( 'NONE', ( #127 ), #44 ) ;
#137 = PRESENTATION_LAYER_ASSIGNMENT (  '', '', ( #131 ) ) ;
#138 = AXIS2_PLACEMENT_3D ( 'NONE', #51, #52, #92 ) ;
#139 = LINE ( 'NONE', #111, #75 ) ;
#140 = EDGE_LOOP ( 'NONE', ( #65, #98 ) ) ;
ENDSEC;
END-ISO-10303-21;
