ISO-10303-21;
HEADER;
FILE_DESCRIPTION (( 'STEP AP214' ),
    '1' );
FILE_NAME ('M5 washer1.step',
    '2018-06-21T12:59:11',
    ( 'User' ),
    ( 'china' ),
    'SwSTEP 2.0',
    'SolidWorks 2016',
    '' );
FILE_SCHEMA (( 'AUTOMOTIVE_DESIGN' ));
ENDSEC;

DATA;
#1 = MANIFOLD_SOLID_BREP ( 'Í¹Ì¨-À­Éì2', #30 ) ;
#2 = DIRECTION ( 'NONE',  ( 0.0000000000000000000, 0.0000000000000000000, 1.000000000000000000 ) ) ;
#3 = PLANE ( 'NONE',  #175 ) ;
#4 = CARTESIAN_POINT ( 'NONE',  ( -2.500000000000000400, 0.0000000000000000000, 0.0000000000000000000 ) ) ;
#5 = CARTESIAN_POINT ( 'NONE',  ( 0.0000000000000000000, 0.0000000000000000000, 1.000000000000000000 ) ) ;
#6 = DIRECTION ( 'NONE',  ( -0.0000000000000000000, -0.0000000000000000000, -1.000000000000000000 ) ) ;
#7 =( NAMED_UNIT ( * ) SI_UNIT ( $, .STERADIAN. ) SOLID_ANGLE_UNIT ( ) );
#8 = UNCERTAINTY_MEASURE_WITH_UNIT (LENGTH_MEASURE( 1.000000000000000100E-005 ), #198, 'distance_accuracy_value', 'NONE');
#9 = APPLICATION_PROTOCOL_DEFINITION ( 'draft international standard', 'automotive_design', 1998, #19 ) ;
#10 = PRODUCT_CONTEXT ( 'NONE', #19, 'mechanical' ) ;
#11 = CARTESIAN_POINT ( 'NONE',  ( 0.0000000000000000000, 0.0000000000000000000, 1.000000000000000000 ) ) ;
#12 = ORIENTED_EDGE ( 'NONE', *, *, #208, .T. ) ;
#13 = DIRECTION ( 'NONE',  ( 1.000000000000000000, 0.0000000000000000000, -0.0000000000000000000 ) ) ;
#14 = CARTESIAN_POINT ( 'NONE',  ( 0.0000000000000000000, 0.0000000000000000000, 1.000000000000000000 ) ) ;
#15 = DIRECTION ( 'NONE',  ( 1.000000000000000000, 0.0000000000000000000, 0.0000000000000000000 ) ) ;
#16 = PRESENTATION_STYLE_ASSIGNMENT (( #40 ) ) ;
#17 = ORIENTED_EDGE ( 'NONE', *, *, #197, .T. ) ;
#18 = EDGE_CURVE ( 'NONE', #38, #94, #199, .T. ) ;
#19 = APPLICATION_CONTEXT ( 'automotive_design' ) ;
#20 = APPLICATION_PROTOCOL_DEFINITION ( 'draft international standard', 'automotive_design', 1998, #132 ) ;
#21 = CARTESIAN_POINT ( 'NONE',  ( 2.500000000000000400, 3.061616997868383600E-016, 0.0000000000000000000 ) ) ;
#22 = ADVANCED_FACE ( 'NONE', ( #212 ), #173, .F. ) ;
#23 = DIRECTION ( 'NONE',  ( -0.0000000000000000000, -0.0000000000000000000, -1.000000000000000000 ) ) ;
#24 = VERTEX_POINT ( 'NONE', #70 ) ;
#25 = FACE_OUTER_BOUND ( 'NONE', #114, .T. ) ;
#26 = FILL_AREA_STYLE ('',( #142 ) ) ;
#27 =( GEOMETRIC_REPRESENTATION_CONTEXT ( 3 ) GLOBAL_UNCERTAINTY_ASSIGNED_CONTEXT ( ( #36 ) ) GLOBAL_UNIT_ASSIGNED_CONTEXT ( ( #178, #67, #203 ) ) REPRESENTATION_CONTEXT ( 'NONE', 'WORKASPACE' ) );
#28 = DIRECTION ( 'NONE',  ( 0.0000000000000000000, 0.0000000000000000000, 1.000000000000000000 ) ) ;
#29 = ADVANCED_FACE ( 'NONE', ( #25, #90 ), #3, .F. ) ;
#30 = CLOSED_SHELL ( 'NONE', ( #22, #187, #138, #29, #209, #125 ) ) ;
#31 = ORIENTED_EDGE ( 'NONE', *, *, #201, .T. ) ;
#32 = DIRECTION ( 'NONE',  ( 0.0000000000000000000, 0.0000000000000000000, 1.000000000000000000 ) ) ;
#33 = CARTESIAN_POINT ( 'NONE',  ( 0.0000000000000000000, 0.0000000000000000000, 1.000000000000000000 ) ) ;
#34 = ORIENTED_EDGE ( 'NONE', *, *, #201, .F. ) ;
#35 = ORIENTED_EDGE ( 'NONE', *, *, #200, .T. ) ;
#36 = UNCERTAINTY_MEASURE_WITH_UNIT (LENGTH_MEASURE( 1.000000000000000100E-005 ), #178, 'distance_accuracy_value', 'NONE');
#37 = EDGE_LOOP ( 'NONE', ( #57, #93 ) ) ;
#38 = VERTEX_POINT ( 'NONE', #96 ) ;
#39 = SHAPE_DEFINITION_REPRESENTATION ( #62, #106 ) ;
#40 = SURFACE_STYLE_USAGE ( .BOTH. , #156 ) ;
#41 = CYLINDRICAL_SURFACE ( 'NONE', #110, 5.000000000000000000 ) ;
#42 = CIRCLE ( 'NONE', #112, 5.000000000000000000 ) ;
#43 = PRESENTATION_STYLE_ASSIGNMENT (( #128 ) ) ;
#44 = DIRECTION ( 'NONE',  ( -0.0000000000000000000, -0.0000000000000000000, -1.000000000000000000 ) ) ;
#45 = DIRECTION ( 'NONE',  ( 1.000000000000000000, 0.0000000000000000000, 0.0000000000000000000 ) ) ;
#46 = COLOUR_RGB ( '',0.4901960784313725300, 0.4901960784313725300, 0.4901960784313725300 ) ;
#47 = CARTESIAN_POINT ( 'NONE',  ( 0.0000000000000000000, 0.0000000000000000000, 0.0000000000000000000 ) ) ;
#48 = ORIENTED_EDGE ( 'NONE', *, *, #206, .F. ) ;
#49 = EDGE_LOOP ( 'NONE', ( #154, #34 ) ) ;
#50 = CARTESIAN_POINT ( 'NONE',  ( 0.0000000000000000000, 0.0000000000000000000, 1.000000000000000000 ) ) ;
#51 = CARTESIAN_POINT ( 'NONE',  ( 0.0000000000000000000, 0.0000000000000000000, 1.000000000000000000 ) ) ;
#52 = VERTEX_POINT ( 'NONE', #21 ) ;
#53 = DIRECTION ( 'NONE',  ( 1.000000000000000000, 0.0000000000000000000, 0.0000000000000000000 ) ) ;
#54 = LINE ( 'NONE', #127, #91 ) ;
#55 = FACE_OUTER_BOUND ( 'NONE', #118, .T. ) ;
#56 = CIRCLE ( 'NONE', #129, 5.000000000000000000 ) ;
#57 = ORIENTED_EDGE ( 'NONE', *, *, #206, .T. ) ;
#58 = CIRCLE ( 'NONE', #140, 2.500000000000000400 ) ;
#59 = FACE_BOUND ( 'NONE', #49, .T. ) ;
#60 = CIRCLE ( 'NONE', #163, 2.500000000000000400 ) ;
#61 = VECTOR ( 'NONE', #139, 1000.000000000000000 ) ;
#62 = PRODUCT_DEFINITION_SHAPE ( 'NONE', 'NONE',  #166 ) ;
#63 = FACE_OUTER_BOUND ( 'NONE', #130, .T. ) ;
#64 = VECTOR ( 'NONE', #148, 1000.000000000000000 ) ;
#65 = CYLINDRICAL_SURFACE ( 'NONE', #167, 5.000000000000000000 ) ;
#66 = CIRCLE ( 'NONE', #168, 5.000000000000000000 ) ;
#67 =( NAMED_UNIT ( * ) PLANE_ANGLE_UNIT ( ) SI_UNIT ( $, .RADIAN. ) );
#68 = FACE_OUTER_BOUND ( 'NONE', #101, .T. ) ;
#69 =( NAMED_UNIT ( * ) SI_UNIT ( $, .STERADIAN. ) SOLID_ANGLE_UNIT ( ) );
#70 = CARTESIAN_POINT ( 'NONE',  ( 5.000000000000000000, 6.123233995736766300E-016, 0.0000000000000000000 ) ) ;
#71 = CIRCLE ( 'NONE', #169, 2.500000000000000400 ) ;
#72 = VECTOR ( 'NONE', #147, 1000.000000000000000 ) ;
#73 = LINE ( 'NONE', #159, #72 ) ;
#74 = DIRECTION ( 'NONE',  ( 1.000000000000000000, 0.0000000000000000000, 0.0000000000000000000 ) ) ;
#75 = CARTESIAN_POINT ( 'NONE',  ( 0.0000000000000000000, 0.0000000000000000000, 0.0000000000000000000 ) ) ;
#76 = DIRECTION ( 'NONE',  ( 1.000000000000000000, 0.0000000000000000000, 0.0000000000000000000 ) ) ;
#77 = CIRCLE ( 'NONE', #177, 2.500000000000000400 ) ;
#78 = CYLINDRICAL_SURFACE ( 'NONE', #172, 2.500000000000000400 ) ;
#79 = CARTESIAN_POINT ( 'NONE',  ( 0.0000000000000000000, 0.0000000000000000000, 0.0000000000000000000 ) ) ;
#80 = CARTESIAN_POINT ( 'NONE',  ( 0.0000000000000000000, 0.0000000000000000000, 0.0000000000000000000 ) ) ;
#81 = ORIENTED_EDGE ( 'NONE', *, *, #146, .F. ) ;
#82 = ORIENTED_EDGE ( 'NONE', *, *, #195, .F. ) ;
#83 = ORIENTED_EDGE ( 'NONE', *, *, #153, .F. ) ;
#84 = MECHANICAL_DESIGN_GEOMETRIC_PRESENTATION_REPRESENTATION (  '', ( #105 ), #27 ) ;
#85 = ORIENTED_EDGE ( 'NONE', *, *, #18, .F. ) ;
#86 = ORIENTED_EDGE ( 'NONE', *, *, #208, .F. ) ;
#87 = FACE_OUTER_BOUND ( 'NONE', #113, .T. ) ;
#88 = PRESENTATION_LAYER_ASSIGNMENT (  '', '', ( #105 ) ) ;
#89 = FILL_AREA_STYLE_COLOUR ( '', #150 ) ;
#90 = FACE_BOUND ( 'NONE', #37, .T. ) ;
#91 = VECTOR ( 'NONE', #6, 1000.000000000000000 ) ;
#92 = SURFACE_STYLE_FILL_AREA ( #26 ) ;
#93 = ORIENTED_EDGE ( 'NONE', *, *, #146, .T. ) ;
#94 = VERTEX_POINT ( 'NONE', #145 ) ;
#95 = EDGE_LOOP ( 'NONE', ( #35, #17, #48, #83 ) ) ;
#96 = CARTESIAN_POINT ( 'NONE',  ( -5.000000000000000000, 0.0000000000000000000, 1.000000000000000000 ) ) ;
#97 = ORIENTED_EDGE ( 'NONE', *, *, #196, .T. ) ;
#98 = ORIENTED_EDGE ( 'NONE', *, *, #214, .T. ) ;
#99 = CARTESIAN_POINT ( 'NONE',  ( -5.000000000000000000, 0.0000000000000000000, 0.0000000000000000000 ) ) ;
#100 = CARTESIAN_POINT ( 'NONE',  ( 2.500000000000000400, 3.061616997868383600E-016, 1.000000000000000000 ) ) ;
#101 = EDGE_LOOP ( 'NONE', ( #134, #97, #117, #186 ) ) ;
#102 = SURFACE_STYLE_FILL_AREA ( #151 ) ;
#103 = DIRECTION ( 'NONE',  ( 1.000000000000000000, 0.0000000000000000000, 0.0000000000000000000 ) ) ;
#104 = DIRECTION ( 'NONE',  ( 1.000000000000000000, 0.0000000000000000000, 0.0000000000000000000 ) ) ;
#105 = STYLED_ITEM ( 'NONE', ( #16 ), #106 ) ;
#106 = ADVANCED_BREP_SHAPE_REPRESENTATION ( 'M5 washer1', ( #1, #190 ), #115 ) ;
#107 =( NAMED_UNIT ( * ) PLANE_ANGLE_UNIT ( ) SI_UNIT ( $, .RADIAN. ) );
#108 = DIRECTION ( 'NONE',  ( 0.0000000000000000000, 0.0000000000000000000, 1.000000000000000000 ) ) ;
#109 = ORIENTED_EDGE ( 'NONE', *, *, #196, .F. ) ;
#110 = AXIS2_PLACEMENT_3D ( 'NONE', #51, #23, #189 ) ;
#111 =( NAMED_UNIT ( * ) PLANE_ANGLE_UNIT ( ) SI_UNIT ( $, .RADIAN. ) );
#112 = AXIS2_PLACEMENT_3D ( 'NONE', #33, #162, #53 ) ;
#113 = EDGE_LOOP ( 'NONE', ( #141, #121 ) ) ;
#114 = EDGE_LOOP ( 'NONE', ( #86, #82 ) ) ;
#115 =( GEOMETRIC_REPRESENTATION_CONTEXT ( 3 ) GLOBAL_UNCERTAINTY_ASSIGNED_CONTEXT ( ( #152 ) ) GLOBAL_UNIT_ASSIGNED_CONTEXT ( ( #213, #107, #7 ) ) REPRESENTATION_CONTEXT ( 'NONE', 'WORKASPACE' ) );
#116 = DIRECTION ( 'NONE',  ( 1.000000000000000000, 0.0000000000000000000, 0.0000000000000000000 ) ) ;
#117 = ORIENTED_EDGE ( 'NONE', *, *, #195, .T. ) ;
#118 = EDGE_LOOP ( 'NONE', ( #131, #31, #144, #81 ) ) ;
#119 = DIRECTION ( 'NONE',  ( 0.0000000000000000000, 0.0000000000000000000, 1.000000000000000000 ) ) ;
#120 = DIRECTION ( 'NONE',  ( 1.000000000000000000, 0.0000000000000000000, -0.0000000000000000000 ) ) ;
#121 = ORIENTED_EDGE ( 'NONE', *, *, #210, .T. ) ;
#122 = CARTESIAN_POINT ( 'NONE',  ( -2.500000000000000400, 0.0000000000000000000, 1.000000000000000000 ) ) ;
#123 = PRODUCT ( 'M5 washer1', 'M5 washer1', '', ( #10 ) ) ;
#124 = CARTESIAN_POINT ( 'NONE',  ( 2.500000000000000400, 3.061616997868383600E-016, 1.000000000000000000 ) ) ;
#125 = ADVANCED_FACE ( 'NONE', ( #55 ), #78, .F. ) ;
#126 = DIRECTION ( 'NONE',  ( 0.0000000000000000000, 0.0000000000000000000, 1.000000000000000000 ) ) ;
#127 = CARTESIAN_POINT ( 'NONE',  ( -5.000000000000000000, 0.0000000000000000000, 1.000000000000000000 ) ) ;
#128 = SURFACE_STYLE_USAGE ( .BOTH. , #174 ) ;
#129 = AXIS2_PLACEMENT_3D ( 'NONE', #79, #211, #104 ) ;
#130 = EDGE_LOOP ( 'NONE', ( #109, #85, #98, #12 ) ) ;
#131 = ORIENTED_EDGE ( 'NONE', *, *, #197, .F. ) ;
#132 = APPLICATION_CONTEXT ( 'automotive_design' ) ;
#133 = DIRECTION ( 'NONE',  ( -1.000000000000000000, 0.0000000000000000000, 0.0000000000000000000 ) ) ;
#134 = ORIENTED_EDGE ( 'NONE', *, *, #210, .F. ) ;
#135 = DIRECTION ( 'NONE',  ( -1.000000000000000000, 0.0000000000000000000, 0.0000000000000000000 ) ) ;
#136 = DIRECTION ( 'NONE',  ( -0.0000000000000000000, -0.0000000000000000000, -1.000000000000000000 ) ) ;
#137 = DIRECTION ( 'NONE',  ( -1.000000000000000000, 0.0000000000000000000, 0.0000000000000000000 ) ) ;
#138 = ADVANCED_FACE ( 'NONE', ( #87, #59 ), #183, .T. ) ;
#139 = DIRECTION ( 'NONE',  ( -0.0000000000000000000, -0.0000000000000000000, -1.000000000000000000 ) ) ;
#140 = AXIS2_PLACEMENT_3D ( 'NONE', #149, #32, #160 ) ;
#141 = ORIENTED_EDGE ( 'NONE', *, *, #18, .T. ) ;
#142 = FILL_AREA_STYLE_COLOUR ( '', #46 ) ;
#143 = VERTEX_POINT ( 'NONE', #99 ) ;
#144 = ORIENTED_EDGE ( 'NONE', *, *, #153, .T. ) ;
#145 = CARTESIAN_POINT ( 'NONE',  ( 5.000000000000000000, 6.123233995736766300E-016, 1.000000000000000000 ) ) ;
#146 = EDGE_CURVE ( 'NONE', #52, #155, #77, .T. ) ;
#147 = DIRECTION ( 'NONE',  ( -0.0000000000000000000, -0.0000000000000000000, -1.000000000000000000 ) ) ;
#148 = DIRECTION ( 'NONE',  ( -0.0000000000000000000, -0.0000000000000000000, -1.000000000000000000 ) ) ;
#149 = CARTESIAN_POINT ( 'NONE',  ( 0.0000000000000000000, 0.0000000000000000000, 0.0000000000000000000 ) ) ;
#150 = COLOUR_RGB ( '',0.4901960784313725300, 0.4901960784313725300, 0.4901960784313725300 ) ;
#151 = FILL_AREA_STYLE ('',( #89 ) ) ;
#152 = UNCERTAINTY_MEASURE_WITH_UNIT (LENGTH_MEASURE( 1.000000000000000100E-005 ), #213, 'distance_accuracy_value', 'NONE');
#153 = EDGE_CURVE ( 'NONE', #182, #155, #73, .T. ) ;
#154 = ORIENTED_EDGE ( 'NONE', *, *, #200, .F. ) ;
#155 = VERTEX_POINT ( 'NONE', #4 ) ;
#156 = SURFACE_SIDE_STYLE ('',( #92 ) ) ;
#157 = DIRECTION ( 'NONE',  ( -0.0000000000000000000, -0.0000000000000000000, -1.000000000000000000 ) ) ;
#158 = CARTESIAN_POINT ( 'NONE',  ( 0.0000000000000000000, 0.0000000000000000000, 1.000000000000000000 ) ) ;
#159 = CARTESIAN_POINT ( 'NONE',  ( -2.500000000000000400, 0.0000000000000000000, 1.000000000000000000 ) ) ;
#160 = DIRECTION ( 'NONE',  ( 1.000000000000000000, 0.0000000000000000000, 0.0000000000000000000 ) ) ;
#161 = PRODUCT_RELATED_PRODUCT_CATEGORY ( 'part', '', ( #123 ) ) ;
#162 = DIRECTION ( 'NONE',  ( 0.0000000000000000000, 0.0000000000000000000, 1.000000000000000000 ) ) ;
#163 = AXIS2_PLACEMENT_3D ( 'NONE', #5, #126, #15 ) ;
#164 = PRODUCT_DEFINITION_FORMATION_WITH_SPECIFIED_SOURCE ( 'ÈÎºÎ', '', #123, .NOT_KNOWN. ) ;
#165 = PRODUCT_DEFINITION_CONTEXT ( 'detailed design', #132, 'design' ) ;
#166 = PRODUCT_DEFINITION ( 'Î´Öª', '', #164, #165 ) ;
#167 = AXIS2_PLACEMENT_3D ( 'NONE', #14, #136, #137 ) ;
#168 = AXIS2_PLACEMENT_3D ( 'NONE', #75, #207, #103 ) ;
#169 = AXIS2_PLACEMENT_3D ( 'NONE', #50, #188, #76 ) ;
#170 = AXIS2_PLACEMENT_3D ( 'NONE', #205, #28, #120 ) ;
#171 = VERTEX_POINT ( 'NONE', #100 ) ;
#172 = AXIS2_PLACEMENT_3D ( 'NONE', #204, #157, #135 ) ;
#173 = CYLINDRICAL_SURFACE ( 'NONE', #176, 2.500000000000000400 ) ;
#174 = SURFACE_SIDE_STYLE ('',( #102 ) ) ;
#175 = AXIS2_PLACEMENT_3D ( 'NONE', #181, #119, #13 ) ;
#176 = AXIS2_PLACEMENT_3D ( 'NONE', #11, #44, #133 ) ;
#177 = AXIS2_PLACEMENT_3D ( 'NONE', #47, #184, #74 ) ;
#178 =( LENGTH_UNIT ( ) NAMED_UNIT ( * ) SI_UNIT ( .MILLI., .METRE. ) );
#179 = AXIS2_PLACEMENT_3D ( 'NONE', #158, #108, #45 ) ;
#180 =( GEOMETRIC_REPRESENTATION_CONTEXT ( 3 ) GLOBAL_UNCERTAINTY_ASSIGNED_CONTEXT ( ( #8 ) ) GLOBAL_UNIT_ASSIGNED_CONTEXT ( ( #198, #111, #69 ) ) REPRESENTATION_CONTEXT ( 'NONE', 'WORKASPACE' ) );
#181 = CARTESIAN_POINT ( 'NONE',  ( 0.0000000000000000000, 0.0000000000000000000, 0.0000000000000000000 ) ) ;
#182 = VERTEX_POINT ( 'NONE', #122 ) ;
#183 = PLANE ( 'NONE',  #170 ) ;
#184 = DIRECTION ( 'NONE',  ( 0.0000000000000000000, 0.0000000000000000000, 1.000000000000000000 ) ) ;
#185 = CARTESIAN_POINT ( 'NONE',  ( 5.000000000000000000, 6.123233995736766300E-016, 1.000000000000000000 ) ) ;
#186 = ORIENTED_EDGE ( 'NONE', *, *, #214, .F. ) ;
#187 = ADVANCED_FACE ( 'NONE', ( #68 ), #65, .T. ) ;
#188 = DIRECTION ( 'NONE',  ( 0.0000000000000000000, 0.0000000000000000000, 1.000000000000000000 ) ) ;
#189 = DIRECTION ( 'NONE',  ( -1.000000000000000000, 0.0000000000000000000, 0.0000000000000000000 ) ) ;
#190 = AXIS2_PLACEMENT_3D ( 'NONE', #80, #2, #116 ) ;
#191 = MECHANICAL_DESIGN_GEOMETRIC_PRESENTATION_REPRESENTATION (  '', ( #193 ), #180 ) ;
#192 = PRESENTATION_LAYER_ASSIGNMENT (  '', '', ( #193 ) ) ;
#193 = STYLED_ITEM ( 'NONE', ( #43 ), #1 ) ;
#194 = LINE ( 'NONE', #185, #64 ) ;
#195 = EDGE_CURVE ( 'NONE', #24, #143, #66, .T. ) ;
#196 = EDGE_CURVE ( 'NONE', #94, #24, #194, .T. ) ;
#197 = EDGE_CURVE ( 'NONE', #171, #52, #202, .T. ) ;
#198 =( LENGTH_UNIT ( ) NAMED_UNIT ( * ) SI_UNIT ( .MILLI., .METRE. ) );
#199 = CIRCLE ( 'NONE', #179, 5.000000000000000000 ) ;
#200 = EDGE_CURVE ( 'NONE', #182, #171, #71, .T. ) ;
#201 = EDGE_CURVE ( 'NONE', #171, #182, #60, .T. ) ;
#202 = LINE ( 'NONE', #124, #61 ) ;
#203 =( NAMED_UNIT ( * ) SI_UNIT ( $, .STERADIAN. ) SOLID_ANGLE_UNIT ( ) );
#204 = CARTESIAN_POINT ( 'NONE',  ( 0.0000000000000000000, 0.0000000000000000000, 1.000000000000000000 ) ) ;
#205 = CARTESIAN_POINT ( 'NONE',  ( 0.0000000000000000000, 0.0000000000000000000, 1.000000000000000000 ) ) ;
#206 = EDGE_CURVE ( 'NONE', #155, #52, #58, .T. ) ;
#207 = DIRECTION ( 'NONE',  ( 0.0000000000000000000, 0.0000000000000000000, 1.000000000000000000 ) ) ;
#208 = EDGE_CURVE ( 'NONE', #143, #24, #56, .T. ) ;
#209 = ADVANCED_FACE ( 'NONE', ( #63 ), #41, .T. ) ;
#210 = EDGE_CURVE ( 'NONE', #94, #38, #42, .T. ) ;
#211 = DIRECTION ( 'NONE',  ( 0.0000000000000000000, 0.0000000000000000000, 1.000000000000000000 ) ) ;
#212 = FACE_OUTER_BOUND ( 'NONE', #95, .T. ) ;
#213 =( LENGTH_UNIT ( ) NAMED_UNIT ( * ) SI_UNIT ( .MILLI., .METRE. ) );
#214 = EDGE_CURVE ( 'NONE', #38, #143, #54, .T. ) ;
ENDSEC;
END-ISO-10303-21;
