ISO-10303-21;
HEADER;
FILE_DESCRIPTION (( 'STEP AP214' ),
    '1' );
FILE_NAME ('M3 Screw.step',
    '2018-06-21T12:58:28',
    ( 'User' ),
    ( 'china' ),
    'SwSTEP 2.0',
    'SolidWorks 2016',
    '' );
FILE_SCHEMA (( 'AUTOMOTIVE_DESIGN' ));
ENDSEC;

DATA;
#1 = FACE_OUTER_BOUND ( 'NONE', #167, .T. ) ;
#2 = CARTESIAN_POINT ( 'NONE',  ( 0.5773502691896260600, 2.000000000000000000, -0.9999999999999997800 ) ) ;
#3 = ORIENTED_EDGE ( 'NONE', *, *, #303, .T. ) ;
#4 = FACE_OUTER_BOUND ( 'NONE', #163, .T. ) ;
#5 = EDGE_LOOP ( 'NONE', ( #3, #121, #161, #376 ) ) ;
#6 = DIRECTION ( 'NONE',  ( 0.0000000000000000000, 1.000000000000000000, 0.0000000000000000000 ) ) ;
#7 = UNCERTAINTY_MEASURE_WITH_UNIT (LENGTH_MEASURE( 1.000000000000000100E-005 ), #83, 'distance_accuracy_value', 'NONE');
#8 = VECTOR ( 'NONE', #15, 1000.000000000000000 ) ;
#9 = CARTESIAN_POINT ( 'NONE',  ( -0.5773502691896257300, -0.0000000000000000000, -0.9999999999999995600 ) ) ;
#10 = CARTESIAN_POINT ( 'NONE',  ( 0.0000000000000000000, 3.000000000000000000, -1.500000000000000200 ) ) ;
#11 = CONICAL_SURFACE ( 'NONE', #53, 1.000000000000000900, 0.7853981633974463900 ) ;
#12 = DIRECTION ( 'NONE',  ( -0.5000000000000002200, 0.0000000000000000000, 0.8660254037844384900 ) ) ;
#13 = LINE ( 'NONE', #281, #246 ) ;
#14 = APPLICATION_CONTEXT ( 'automotive_design' ) ;
#15 = DIRECTION ( 'NONE',  ( 0.5000000000000001100, -0.0000000000000000000, -0.8660254037844386000 ) ) ;
#16 = CARTESIAN_POINT ( 'NONE',  ( 0.0000000000000000000, 3.000000000000000000, 0.0000000000000000000 ) ) ;
#17 = LINE ( 'NONE', #319, #20 ) ;
#18 = LINE ( 'NONE', #176, #8 ) ;
#19 = CARTESIAN_POINT ( 'NONE',  ( 0.0000000000000000000, 2.499999999999998700, 0.0000000000000000000 ) ) ;
#20 = VECTOR ( 'NONE', #272, 1000.000000000000000 ) ;
#21 = ORIENTED_EDGE ( 'NONE', *, *, #326, .T. ) ;
#22 = CONICAL_SURFACE ( 'NONE', #278, 1.000000000000000900, 0.7853981633974463900 ) ;
#23 = VECTOR ( 'NONE', #43, 1000.000000000000000 ) ;
#24 = ADVANCED_FACE ( 'NONE', ( #151 ), #264, .F. ) ;
#25 = LINE ( 'NONE', #115, #26 ) ;
#26 = VECTOR ( 'NONE', #332, 1000.000000000000000 ) ;
#27 = FACE_OUTER_BOUND ( 'NONE', #104, .T. ) ;
#28 = PLANE ( 'NONE',  #261 ) ;
#29 = CYLINDRICAL_SURFACE ( 'NONE', #56, 1.500000000000000200 ) ;
#30 = FACE_OUTER_BOUND ( 'NONE', #94, .T. ) ;
#31 = FACE_OUTER_BOUND ( 'NONE', #5, .T. ) ;
#32 = FACE_OUTER_BOUND ( 'NONE', #238, .T. ) ;
#33 = DIRECTION ( 'NONE',  ( 0.8660254037844387100, 0.0000000000000000000, -0.4999999999999999400 ) ) ;
#34 = CARTESIAN_POINT ( 'NONE',  ( -0.5773502691896257300, -0.0000000000000000000, -0.9999999999999995600 ) ) ;
#35 = FACE_OUTER_BOUND ( 'NONE', #241, .T. ) ;
#36 = ORIENTED_EDGE ( 'NONE', *, *, #358, .F. ) ;
#37 = DIRECTION ( 'NONE',  ( -0.4999999999999999400, 0.0000000000000000000, -0.8660254037844387100 ) ) ;
#38 = CARTESIAN_POINT ( 'NONE',  ( -0.5773502691896257300, 2.000000000000000000, -0.9999999999999995600 ) ) ;
#39 = CIRCLE ( 'NONE', #91, 1.500000000000000200 ) ;
#40 = ORIENTED_EDGE ( 'NONE', *, *, #337, .F. ) ;
#41 = LINE ( 'NONE', #243, #375 ) ;
#42 = DIRECTION ( 'NONE',  ( 0.0000000000000000000, -1.000000000000000000, 0.0000000000000000000 ) ) ;
#43 = DIRECTION ( 'NONE',  ( 8.659560562354918100E-017, -0.7071067811865489100, 0.7071067811865462400 ) ) ;
#44 = CARTESIAN_POINT ( 'NONE',  ( 0.5773502691896256200, 2.000000000000000000, 1.000000000000000000 ) ) ;
#45 = PLANE ( 'NONE',  #95 ) ;
#46 = VERTEX_POINT ( 'NONE', #188 ) ;
#47 = SURFACE_SIDE_STYLE ('',( #184 ) ) ;
#48 = DIRECTION ( 'NONE',  ( -1.000000000000000000, 0.0000000000000000000, 0.0000000000000000000 ) ) ;
#49 = CARTESIAN_POINT ( 'NONE',  ( -0.5773502691896260600, 2.000000000000000000, 1.000000000000000000 ) ) ;
#50 = CARTESIAN_POINT ( 'NONE',  ( 0.5773502691896256200, 0.0000000000000000000, 1.000000000000000000 ) ) ;
#51 = VECTOR ( 'NONE', #360, 1000.000000000000100 ) ;
#52 = ORIENTED_EDGE ( 'NONE', *, *, #335, .T. ) ;
#53 = AXIS2_PLACEMENT_3D ( 'NONE', #371, #289, #329 ) ;
#54 = AXIS2_PLACEMENT_3D ( 'NONE', #100, #68, #126 ) ;
#55 = ADVANCED_FACE ( 'NONE', ( #60, #61 ), #28, .F. ) ;
#56 = AXIS2_PLACEMENT_3D ( 'NONE', #203, #252, #224 ) ;
#57 = FACE_OUTER_BOUND ( 'NONE', #154, .T. ) ;
#58 = CARTESIAN_POINT ( 'NONE',  ( 0.5773502691896260600, 2.000000000000000000, -0.9999999999999997800 ) ) ;
#59 = SURFACE_STYLE_FILL_AREA ( #314 ) ;
#60 = FACE_BOUND ( 'NONE', #128, .T. ) ;
#61 = FACE_OUTER_BOUND ( 'NONE', #145, .T. ) ;
#62 = LINE ( 'NONE', #71, #348 ) ;
#63 = ORIENTED_EDGE ( 'NONE', *, *, #347, .T. ) ;
#64 = PLANE ( 'NONE',  #54 ) ;
#65 = PRESENTATION_STYLE_ASSIGNMENT (( #262 ) ) ;
#66 = ORIENTED_EDGE ( 'NONE', *, *, #307, .F. ) ;
#67 = MANIFOLD_SOLID_BREP ( 'ÇÐ³ý-À­Éì1', #166 ) ;
#68 = DIRECTION ( 'NONE',  ( -0.8660254037844386000, 0.0000000000000000000, 0.5000000000000001100 ) ) ;
#69 = FACE_OUTER_BOUND ( 'NONE', #172, .T. ) ;
#70 = CARTESIAN_POINT ( 'NONE',  ( -0.5773502691896257300, 2.000000000000000000, -0.9999999999999995600 ) ) ;
#71 = CARTESIAN_POINT ( 'NONE',  ( 0.5773502691896260600, 2.000000000000000000, -0.9999999999999997800 ) ) ;
#72 = COLOUR_RGB ( '',1.000000000000000000, 1.000000000000000000, 1.000000000000000000 ) ;
#73 = VERTEX_POINT ( 'NONE', #354 ) ;
#74 = VERTEX_POINT ( 'NONE', #191 ) ;
#75 = VECTOR ( 'NONE', #271, 999.9999999999998900 ) ;
#76 = DIRECTION ( 'NONE',  ( -0.0000000000000000000, -1.000000000000000000, -0.0000000000000000000 ) ) ;
#77 = ORIENTED_EDGE ( 'NONE', *, *, #330, .F. ) ;
#78 = PLANE ( 'NONE',  #301 ) ;
#79 = ORIENTED_EDGE ( 'NONE', *, *, #300, .F. ) ;
#80 = ORIENTED_EDGE ( 'NONE', *, *, #359, .T. ) ;
#81 = FILL_AREA_STYLE_COLOUR ( '', #249 ) ;
#82 = VECTOR ( 'NONE', #284, 1000.000000000000000 ) ;
#83 =( LENGTH_UNIT ( ) NAMED_UNIT ( * ) SI_UNIT ( .MILLI., .METRE. ) );
#84 = ADVANCED_FACE ( 'NONE', ( #31 ), #397, .F. ) ;
#85 = CARTESIAN_POINT ( 'NONE',  ( 0.5773502691896260600, 0.0000000000000000000, -0.9999999999999997800 ) ) ;
#86 = ORIENTED_EDGE ( 'NONE', *, *, #215, .F. ) ;
#87 = AXIS2_PLACEMENT_3D ( 'NONE', #16, #317, #134 ) ;
#88 = VERTEX_POINT ( 'NONE', #58 ) ;
#89 = ORIENTED_EDGE ( 'NONE', *, *, #344, .T. ) ;
#90 = ORIENTED_EDGE ( 'NONE', *, *, #182, .T. ) ;
#91 = AXIS2_PLACEMENT_3D ( 'NONE', #194, #6, #220 ) ;
#92 = PRESENTATION_LAYER_ASSIGNMENT (  '', '', ( #201 ) ) ;
#93 = CIRCLE ( 'NONE', #315, 1.000000000000000900 ) ;
#94 = EDGE_LOOP ( 'NONE', ( #133, #204, #387, #159 ) ) ;
#95 = AXIS2_PLACEMENT_3D ( 'NONE', #230, #228, #149 ) ;
#96 = ORIENTED_EDGE ( 'NONE', *, *, #338, .T. ) ;
#97 = VERTEX_POINT ( 'NONE', #34 ) ;
#98 = VECTOR ( 'NONE', #218, 1000.000000000000000 ) ;
#99 = EDGE_LOOP ( 'NONE', ( #79, #374, #89, #369 ) ) ;
#100 = CARTESIAN_POINT ( 'NONE',  ( -0.5773502691896260600, 2.000000000000000000, 1.000000000000000000 ) ) ;
#101 = UNCERTAINTY_MEASURE_WITH_UNIT (LENGTH_MEASURE( 1.000000000000000100E-005 ), #223, 'distance_accuracy_value', 'NONE');
#102 = LINE ( 'NONE', #386, #396 ) ;
#103 = PRESENTATION_STYLE_ASSIGNMENT (( #251 ) ) ;
#104 = EDGE_LOOP ( 'NONE', ( #123, #108, #395, #36 ) ) ;
#105 = ORIENTED_EDGE ( 'NONE', *, *, #270, .T. ) ;
#106 = ORIENTED_EDGE ( 'NONE', *, *, #324, .T. ) ;
#107 = CARTESIAN_POINT ( 'NONE',  ( -0.5773502691896260600, 2.000000000000000000, 1.000000000000000000 ) ) ;
#108 = ORIENTED_EDGE ( 'NONE', *, *, #341, .T. ) ;
#109 = CARTESIAN_POINT ( 'NONE',  ( 0.0000000000000000000, 3.000000000000000000, 0.0000000000000000000 ) ) ;
#110 = ORIENTED_EDGE ( 'NONE', *, *, #323, .T. ) ;
#111 = CARTESIAN_POINT ( 'NONE',  ( 0.0000000000000000000, 0.0000000000000000000, 0.0000000000000000000 ) ) ;
#112 = VECTOR ( 'NONE', #195, 1000.000000000000100 ) ;
#113 = CARTESIAN_POINT ( 'NONE',  ( 0.0000000000000000000, 3.000000000000000000, -1.000000000000000900 ) ) ;
#114 =( NAMED_UNIT ( * ) SI_UNIT ( $, .STERADIAN. ) SOLID_ANGLE_UNIT ( ) );
#115 = CARTESIAN_POINT ( 'NONE',  ( 0.5773502691896256200, 2.000000000000000000, 1.000000000000000000 ) ) ;
#116 = DIRECTION ( 'NONE',  ( -0.0000000000000000000, -1.000000000000000000, -0.0000000000000000000 ) ) ;
#117 = ADVANCED_FACE ( 'NONE', ( #35 ), #64, .F. ) ;
#118 = ORIENTED_EDGE ( 'NONE', *, *, #359, .F. ) ;
#119 = CARTESIAN_POINT ( 'NONE',  ( 1.154700538379251900, 0.0000000000000000000, 0.0000000000000000000 ) ) ;
#120 = VERTEX_POINT ( 'NONE', #190 ) ;
#121 = ORIENTED_EDGE ( 'NONE', *, *, #347, .F. ) ;
#122 = VECTOR ( 'NONE', #138, 1000.000000000000000 ) ;
#123 = ORIENTED_EDGE ( 'NONE', *, *, #338, .F. ) ;
#124 = ORIENTED_EDGE ( 'NONE', *, *, #345, .T. ) ;
#125 = DIRECTION ( 'NONE',  ( -0.5000000000000001100, 0.0000000000000000000, 0.8660254037844386000 ) ) ;
#126 = DIRECTION ( 'NONE',  ( 0.5000000000000001100, 0.0000000000000000000, 0.8660254037844386000 ) ) ;
#127 = ORIENTED_EDGE ( 'NONE', *, *, #330, .T. ) ;
#128 = EDGE_LOOP ( 'NONE', ( #263, #155, #118, #86, #66, #394 ) ) ;
#129 = CARTESIAN_POINT ( 'NONE',  ( 0.0000000000000000000, 3.000000000000000000, -1.000000000000000900 ) ) ;
#130 = ADVANCED_BREP_SHAPE_REPRESENTATION ( 'M3 Screw', ( #67, #287 ), #306 ) ;
#131 = CARTESIAN_POINT ( 'NONE',  ( 1.836970198721030200E-016, 2.499999999999998700, 1.500000000000000200 ) ) ;
#132 = VERTEX_POINT ( 'NONE', #131 ) ;
#133 = ORIENTED_EDGE ( 'NONE', *, *, #267, .T. ) ;
#134 = DIRECTION ( 'NONE',  ( 0.0000000000000000000, 0.0000000000000000000, -1.000000000000000000 ) ) ;
#135 = ORIENTED_EDGE ( 'NONE', *, *, #328, .F. ) ;
#136 = VECTOR ( 'NONE', #116, 1000.000000000000000 ) ;
#137 = EDGE_LOOP ( 'NONE', ( #233, #96 ) ) ;
#138 = DIRECTION ( 'NONE',  ( -0.0000000000000000000, -1.000000000000000000, -0.0000000000000000000 ) ) ;
#139 = DIRECTION ( 'NONE',  ( 0.0000000000000000000, 0.0000000000000000000, 1.000000000000000000 ) ) ;
#140 = DIRECTION ( 'NONE',  ( 0.0000000000000000000, -0.0000000000000000000, 1.000000000000000000 ) ) ;
#141 = DIRECTION ( 'NONE',  ( 0.0000000000000000000, 0.0000000000000000000, 1.000000000000000000 ) ) ;
#142 = EDGE_LOOP ( 'NONE', ( #352, #231, #257, #127 ) ) ;
#143 =( NAMED_UNIT ( * ) PLANE_ANGLE_UNIT ( ) SI_UNIT ( $, .RADIAN. ) );
#144 = CARTESIAN_POINT ( 'NONE',  ( 0.0000000000000000000, 3.000000000000000000, 0.0000000000000000000 ) ) ;
#145 = EDGE_LOOP ( 'NONE', ( #135, #209 ) ) ;
#146 = VERTEX_POINT ( 'NONE', #379 ) ;
#147 = DIRECTION ( 'NONE',  ( 0.0000000000000000000, 0.0000000000000000000, 1.000000000000000000 ) ) ;
#148 = DIRECTION ( 'NONE',  ( 0.0000000000000000000, -1.000000000000000000, 0.0000000000000000000 ) ) ;
#149 = DIRECTION ( 'NONE',  ( 0.5000000000000002200, 0.0000000000000000000, -0.8660254037844384900 ) ) ;
#150 = VERTEX_POINT ( 'NONE', #129 ) ;
#151 = FACE_OUTER_BOUND ( 'NONE', #142, .T. ) ;
#152 = LINE ( 'NONE', #240, #75 ) ;
#153 = ORIENTED_EDGE ( 'NONE', *, *, #350, .F. ) ;
#154 = EDGE_LOOP ( 'NONE', ( #381, #153, #196, #268 ) ) ;
#155 = ORIENTED_EDGE ( 'NONE', *, *, #303, .F. ) ;
#156 = ORIENTED_EDGE ( 'NONE', *, *, #299, .T. ) ;
#157 = ADVANCED_FACE ( 'NONE', ( #27 ), #22, .T. ) ;
#158 = VERTEX_POINT ( 'NONE', #119 ) ;
#159 = ORIENTED_EDGE ( 'NONE', *, *, #344, .F. ) ;
#160 = CYLINDRICAL_SURFACE ( 'NONE', #87, 1.500000000000000200 ) ;
#161 = ORIENTED_EDGE ( 'NONE', *, *, #299, .F. ) ;
#162 = DIRECTION ( 'NONE',  ( -0.8660254037844386000, 0.0000000000000000000, -0.5000000000000001100 ) ) ;
#163 = EDGE_LOOP ( 'NONE', ( #124, #273, #40, #63 ) ) ;
#164 = FACE_OUTER_BOUND ( 'NONE', #137, .T. ) ;
#165 = CARTESIAN_POINT ( 'NONE',  ( -0.5773502691896260600, 0.0000000000000000000, 1.000000000000000000 ) ) ;
#166 = CLOSED_SHELL ( 'NONE', ( #157, #208, #298, #373, #55, #183, #84, #259, #24, #117, #389, #229, #340 ) ) ;
#167 = EDGE_LOOP ( 'NONE', ( #80, #304, #237, #106 ) ) ;
#168 = PLANE ( 'NONE',  #318 ) ;
#169 = CARTESIAN_POINT ( 'NONE',  ( 0.5773502691896256200, 2.000000000000000000, 1.000000000000000000 ) ) ;
#170 = DIRECTION ( 'NONE',  ( 0.0000000000000000000, -0.0000000000000000000, -1.000000000000000000 ) ) ;
#171 = DIRECTION ( 'NONE',  ( 0.0000000000000000000, 1.000000000000000000, 0.0000000000000000000 ) ) ;
#172 = EDGE_LOOP ( 'NONE', ( #105, #186, #216, #52 ) ) ;
#173 = DIRECTION ( 'NONE',  ( -0.0000000000000000000, -1.000000000000000000, -0.0000000000000000000 ) ) ;
#174 = CIRCLE ( 'NONE', #311, 1.500000000000000200 ) ;
#175 = PRODUCT_CONTEXT ( 'NONE', #14, 'mechanical' ) ;
#176 = CARTESIAN_POINT ( 'NONE',  ( -1.154700538379251700, 0.0000000000000000000, 4.568410828183210000E-016 ) ) ;
#177 = VERTEX_POINT ( 'NONE', #391 ) ;
#178 = MECHANICAL_DESIGN_GEOMETRIC_PRESENTATION_REPRESENTATION (  '', ( #201 ), #212 ) ;
#179 = LINE ( 'NONE', #193, #98 ) ;
#180 = LINE ( 'NONE', #222, #23 ) ;
#181 = VECTOR ( 'NONE', #76, 1000.000000000000000 ) ;
#182 = EDGE_CURVE ( 'NONE', #343, #211, #25, .T. ) ;
#183 = ADVANCED_FACE ( 'NONE', ( #57 ), #11, .T. ) ;
#184 = SURFACE_STYLE_FILL_AREA ( #227 ) ;
#185 = UNCERTAINTY_MEASURE_WITH_UNIT (LENGTH_MEASURE( 1.000000000000000100E-005 ), #266, 'distance_accuracy_value', 'NONE');
#186 = ORIENTED_EDGE ( 'NONE', *, *, #333, .F. ) ;
#187 = CARTESIAN_POINT ( 'NONE',  ( 0.0000000000000000000, 0.0000000000000000000, 0.0000000000000000000 ) ) ;
#188 = CARTESIAN_POINT ( 'NONE',  ( 0.0000000000000000000, 2.499999999999998700, -1.500000000000000200 ) ) ;
#189 = LINE ( 'NONE', #362, #112 ) ;
#190 = CARTESIAN_POINT ( 'NONE',  ( 0.0000000000000000000, 0.0000000000000000000, -1.500000000000000200 ) ) ;
#191 = CARTESIAN_POINT ( 'NONE',  ( 1.836970198721030200E-016, 0.0000000000000000000, 1.500000000000000200 ) ) ;
#192 = CARTESIAN_POINT ( 'NONE',  ( -1.154700538379251700, 2.000000000000000000, 4.568410828183210000E-016 ) ) ;
#193 = CARTESIAN_POINT ( 'NONE',  ( -0.5773502691896257300, 2.000000000000000000, -0.9999999999999995600 ) ) ;
#194 = CARTESIAN_POINT ( 'NONE',  ( 0.0000000000000000000, 0.0000000000000000000, 0.0000000000000000000 ) ) ;
#195 = DIRECTION ( 'NONE',  ( -0.5000000000000002200, 0.0000000000000000000, 0.8660254037844384900 ) ) ;
#196 = ORIENTED_EDGE ( 'NONE', *, *, #358, .T. ) ;
#197 = CARTESIAN_POINT ( 'NONE',  ( 0.0000000000000000000, 3.000000000000000000, 0.0000000000000000000 ) ) ;
#198 = LINE ( 'NONE', #107, #122 ) ;
#199 = DIRECTION ( 'NONE',  ( 0.0000000000000000000, 0.0000000000000000000, -1.000000000000000000 ) ) ;
#200 = CARTESIAN_POINT ( 'NONE',  ( 1.836970198721030200E-016, 3.000000000000000000, 1.500000000000000200 ) ) ;
#201 = STYLED_ITEM ( 'NONE', ( #65 ), #67 ) ;
#202 = APPLICATION_PROTOCOL_DEFINITION ( 'draft international standard', 'automotive_design', 1998, #390 ) ;
#203 = CARTESIAN_POINT ( 'NONE',  ( 0.0000000000000000000, 3.000000000000000000, 0.0000000000000000000 ) ) ;
#204 = ORIENTED_EDGE ( 'NONE', *, *, #300, .T. ) ;
#205 = AXIS2_PLACEMENT_3D ( 'NONE', #192, #162, #125 ) ;
#206 = ORIENTED_EDGE ( 'NONE', *, *, #307, .T. ) ;
#207 = LINE ( 'NONE', #200, #136 ) ;
#208 = ADVANCED_FACE ( 'NONE', ( #30 ), #29, .T. ) ;
#209 = ORIENTED_EDGE ( 'NONE', *, *, #342, .F. ) ;
#210 = VERTEX_POINT ( 'NONE', #85 ) ;
#211 = VERTEX_POINT ( 'NONE', #49 ) ;
#212 =( GEOMETRIC_REPRESENTATION_CONTEXT ( 3 ) GLOBAL_UNCERTAINTY_ASSIGNED_CONTEXT ( ( #185 ) ) GLOBAL_UNIT_ASSIGNED_CONTEXT ( ( #266, #308, #310 ) ) REPRESENTATION_CONTEXT ( 'NONE', 'WORKASPACE' ) );
#213 = LINE ( 'NONE', #2, #393 ) ;
#214 = ORIENTED_EDGE ( 'NONE', *, *, #331, .F. ) ;
#215 = EDGE_CURVE ( 'NONE', #177, #97, #18, .T. ) ;
#216 = ORIENTED_EDGE ( 'NONE', *, *, #182, .F. ) ;
#217 = DIRECTION ( 'NONE',  ( 0.4999999999999999400, 0.0000000000000000000, 0.8660254037844387100 ) ) ;
#218 = DIRECTION ( 'NONE',  ( 1.000000000000000000, 0.0000000000000000000, -1.877893248421449000E-016 ) ) ;
#219 = LINE ( 'NONE', #165, #51 ) ;
#220 = DIRECTION ( 'NONE',  ( 0.0000000000000000000, 0.0000000000000000000, 1.000000000000000000 ) ) ;
#221 = CARTESIAN_POINT ( 'NONE',  ( 0.0000000000000000000, 2.499999999999998700, 0.0000000000000000000 ) ) ;
#222 = CARTESIAN_POINT ( 'NONE',  ( 1.224646799147354400E-016, 3.000000000000000000, 1.000000000000000900 ) ) ;
#223 =( LENGTH_UNIT ( ) NAMED_UNIT ( * ) SI_UNIT ( .MILLI., .METRE. ) );
#224 = DIRECTION ( 'NONE',  ( 0.0000000000000000000, 0.0000000000000000000, -1.000000000000000000 ) ) ;
#225 = DIRECTION ( 'NONE',  ( -0.0000000000000000000, -1.000000000000000000, -0.0000000000000000000 ) ) ;
#226 = ORIENTED_EDGE ( 'NONE', *, *, #333, .T. ) ;
#227 = FILL_AREA_STYLE ('',( #81 ) ) ;
#228 = DIRECTION ( 'NONE',  ( 0.8660254037844386000, -0.0000000000000000000, 0.5000000000000003300 ) ) ;
#229 = ADVANCED_FACE ( 'NONE', ( #4 ), #45, .F. ) ;
#230 = CARTESIAN_POINT ( 'NONE',  ( 1.154700538379251700, 2.000000000000000000, -1.860964649275394900E-017 ) ) ;
#231 = ORIENTED_EDGE ( 'NONE', *, *, #324, .F. ) ;
#232 = VERTEX_POINT ( 'NONE', #291 ) ;
#233 = ORIENTED_EDGE ( 'NONE', *, *, #350, .T. ) ;
#234 = LINE ( 'NONE', #113, #82 ) ;
#235 = DIRECTION ( 'NONE',  ( 0.0000000000000000000, -1.000000000000000000, 0.0000000000000000000 ) ) ;
#236 = VERTEX_POINT ( 'NONE', #392 ) ;
#237 = ORIENTED_EDGE ( 'NONE', *, *, #323, .F. ) ;
#238 = EDGE_LOOP ( 'NONE', ( #156, #377, #90, #336, #21, #110 ) ) ;
#239 = VECTOR ( 'NONE', #173, 1000.000000000000000 ) ;
#240 = CARTESIAN_POINT ( 'NONE',  ( 0.5773502691896260600, 0.0000000000000000000, -0.9999999999999997800 ) ) ;
#241 = EDGE_LOOP ( 'NONE', ( #206, #77, #214, #226 ) ) ;
#242 = DIRECTION ( 'NONE',  ( -0.0000000000000000000, -1.000000000000000000, -0.0000000000000000000 ) ) ;
#243 = CARTESIAN_POINT ( 'NONE',  ( -0.5773502691896260600, 2.000000000000000000, 1.000000000000000000 ) ) ;
#244 = LINE ( 'NONE', #382, #356 ) ;
#245 = DIRECTION ( 'NONE',  ( 0.0000000000000000000, 0.0000000000000000000, 1.000000000000000000 ) ) ;
#246 = VECTOR ( 'NONE', #12, 1000.000000000000100 ) ;
#247 = LINE ( 'NONE', #38, #181 ) ;
#248 = DIRECTION ( 'NONE',  ( 1.000000000000000000, 0.0000000000000000000, -0.0000000000000000000 ) ) ;
#249 = COLOUR_RGB ( '',1.000000000000000000, 1.000000000000000000, 1.000000000000000000 ) ;
#250 = AXIS2_PLACEMENT_3D ( 'NONE', #109, #322, #139 ) ;
#251 = SURFACE_STYLE_USAGE ( .BOTH. , #47 ) ;
#252 = DIRECTION ( 'NONE',  ( -0.0000000000000000000, -1.000000000000000000, -0.0000000000000000000 ) ) ;
#253 = DIRECTION ( 'NONE',  ( -1.000000000000000000, 0.0000000000000000000, 1.877893248421449000E-016 ) ) ;
#254 = AXIS2_PLACEMENT_3D ( 'NONE', #372, #288, #253 ) ;
#255 = CARTESIAN_POINT ( 'NONE',  ( 0.0000000000000000000, 3.000000000000000000, 0.0000000000000000000 ) ) ;
#256 = PRODUCT ( 'M3 Screw', 'M3 Screw', '', ( #175 ) ) ;
#257 = ORIENTED_EDGE ( 'NONE', *, *, #326, .F. ) ;
#258 = CIRCLE ( 'NONE', #250, 1.000000000000000900 ) ;
#259 = ADVANCED_FACE ( 'NONE', ( #1 ), #334, .F. ) ;
#260 = AXIS2_PLACEMENT_3D ( 'NONE', #357, #33, #37 ) ;
#261 = AXIS2_PLACEMENT_3D ( 'NONE', #187, #349, #351 ) ;
#262 = SURFACE_STYLE_USAGE ( .BOTH. , #312 ) ;
#263 = ORIENTED_EDGE ( 'NONE', *, *, #345, .F. ) ;
#264 = PLANE ( 'NONE',  #205 ) ;
#265 = LINE ( 'NONE', #363, #365 ) ;
#266 =( LENGTH_UNIT ( ) NAMED_UNIT ( * ) SI_UNIT ( .MILLI., .METRE. ) );
#267 = EDGE_CURVE ( 'NONE', #46, #132, #378, .T. ) ;
#268 = ORIENTED_EDGE ( 'NONE', *, *, #353, .F. ) ;
#269 = CARTESIAN_POINT ( 'NONE',  ( 0.5773502691896256200, 0.0000000000000000000, 1.000000000000000000 ) ) ;
#270 = EDGE_CURVE ( 'NONE', #276, #236, #293, .T. ) ;
#271 = DIRECTION ( 'NONE',  ( 0.4999999999999999400, 0.0000000000000000000, 0.8660254037844387100 ) ) ;
#272 = DIRECTION ( 'NONE',  ( 0.5000000000000001100, -0.0000000000000000000, -0.8660254037844386000 ) ) ;
#273 = ORIENTED_EDGE ( 'NONE', *, *, #335, .F. ) ;
#274 = VECTOR ( 'NONE', #48, 1000.000000000000000 ) ;
#275 = DIRECTION ( 'NONE',  ( -0.5000000000000001100, 0.0000000000000000000, -0.8660254037844386000 ) ) ;
#276 = VERTEX_POINT ( 'NONE', #269 ) ;
#277 = CARTESIAN_POINT ( 'NONE',  ( 0.0000000000000000000, 2.000000000000000000, 0.0000000000000000000 ) ) ;
#278 = AXIS2_PLACEMENT_3D ( 'NONE', #255, #148, #199 ) ;
#279 = DIRECTION ( 'NONE',  ( 1.000000000000000000, 0.0000000000000000000, -1.877893248421449000E-016 ) ) ;
#280 = PRODUCT_RELATED_PRODUCT_CATEGORY ( 'part', '', ( #256 ) ) ;
#281 = CARTESIAN_POINT ( 'NONE',  ( 1.154700538379251700, 0.0000000000000000000, -1.860964649275394900E-017 ) ) ;
#282 = PRODUCT_DEFINITION_FORMATION_WITH_SPECIFIED_SOURCE ( 'ÈÎºÎ', '', #256, .NOT_KNOWN. ) ;
#283 = CARTESIAN_POINT ( 'NONE',  ( 0.0000000000000000000, 0.0000000000000000000, 0.0000000000000000000 ) ) ;
#284 = DIRECTION ( 'NONE',  ( 0.0000000000000000000, -0.7071067811865489100, -0.7071067811865462400 ) ) ;
#285 = PRODUCT_DEFINITION ( 'Î´Öª', '', #282, #380 ) ;
#286 =( NAMED_UNIT ( * ) PLANE_ANGLE_UNIT ( ) SI_UNIT ( $, .RADIAN. ) );
#287 = AXIS2_PLACEMENT_3D ( 'NONE', #283, #147, #370 ) ;
#288 = DIRECTION ( 'NONE',  ( -1.877893248421449000E-016, 0.0000000000000000000, -1.000000000000000000 ) ) ;
#289 = DIRECTION ( 'NONE',  ( 0.0000000000000000000, -1.000000000000000000, 0.0000000000000000000 ) ) ;
#290 = AXIS2_PLACEMENT_3D ( 'NONE', #19, #235, #302 ) ;
#291 = CARTESIAN_POINT ( 'NONE',  ( -1.154700538379251700, 2.000000000000000000, 4.568410828183210000E-016 ) ) ;
#292 =( GEOMETRIC_REPRESENTATION_CONTEXT ( 3 ) GLOBAL_UNCERTAINTY_ASSIGNED_CONTEXT ( ( #7 ) ) GLOBAL_UNIT_ASSIGNED_CONTEXT ( ( #83, #286, #114 ) ) REPRESENTATION_CONTEXT ( 'NONE', 'WORKASPACE' ) );
#293 = LINE ( 'NONE', #50, #274 ) ;
#294 = VERTEX_POINT ( 'NONE', #70 ) ;
#295 = MECHANICAL_DESIGN_GEOMETRIC_PRESENTATION_REPRESENTATION (  '', ( #297 ), #292 ) ;
#296 = PRESENTATION_LAYER_ASSIGNMENT (  '', '', ( #297 ) ) ;
#297 = STYLED_ITEM ( 'NONE', ( #103 ), #130 ) ;
#298 = ADVANCED_FACE ( 'NONE', ( #305 ), #160, .T. ) ;
#299 = EDGE_CURVE ( 'NONE', #88, #146, #213, .T. ) ;
#300 = EDGE_CURVE ( 'NONE', #132, #74, #207, .T. ) ;
#301 = AXIS2_PLACEMENT_3D ( 'NONE', #44, #140, #248 ) ;
#302 = DIRECTION ( 'NONE',  ( 0.0000000000000000000, 0.0000000000000000000, 1.000000000000000000 ) ) ;
#303 = EDGE_CURVE ( 'NONE', #210, #158, #152, .T. ) ;
#304 = ORIENTED_EDGE ( 'NONE', *, *, #321, .F. ) ;
#305 = FACE_OUTER_BOUND ( 'NONE', #99, .T. ) ;
#306 =( GEOMETRIC_REPRESENTATION_CONTEXT ( 3 ) GLOBAL_UNCERTAINTY_ASSIGNED_CONTEXT ( ( #101 ) ) GLOBAL_UNIT_ASSIGNED_CONTEXT ( ( #223, #143, #367 ) ) REPRESENTATION_CONTEXT ( 'NONE', 'WORKASPACE' ) );
#307 = EDGE_CURVE ( 'NONE', #236, #177, #219, .T. ) ;
#308 =( NAMED_UNIT ( * ) PLANE_ANGLE_UNIT ( ) SI_UNIT ( $, .RADIAN. ) );
#309 = AXIS2_PLACEMENT_3D ( 'NONE', #197, #171, #385 ) ;
#310 =( NAMED_UNIT ( * ) SI_UNIT ( $, .STERADIAN. ) SOLID_ANGLE_UNIT ( ) );
#311 = AXIS2_PLACEMENT_3D ( 'NONE', #221, #42, #245 ) ;
#312 = SURFACE_SIDE_STYLE ('',( #59 ) ) ;
#313 = VECTOR ( 'NONE', #279, 1000.000000000000000 ) ;
#314 = FILL_AREA_STYLE ('',( #346 ) ) ;
#315 = AXIS2_PLACEMENT_3D ( 'NONE', #144, #368, #384 ) ;
#316 = SHAPE_DEFINITION_REPRESENTATION ( #398, #130 ) ;
#317 = DIRECTION ( 'NONE',  ( -0.0000000000000000000, -1.000000000000000000, -0.0000000000000000000 ) ) ;
#318 = AXIS2_PLACEMENT_3D ( 'NONE', #277, #364, #170 ) ;
#319 = CARTESIAN_POINT ( 'NONE',  ( -1.154700538379251700, 2.000000000000000000, 4.568410828183210000E-016 ) ) ;
#320 = AXIS2_PLACEMENT_3D ( 'NONE', #111, #325, #141 ) ;
#321 = EDGE_CURVE ( 'NONE', #88, #210, #62, .T. ) ;
#322 = DIRECTION ( 'NONE',  ( 0.0000000000000000000, 1.000000000000000000, 0.0000000000000000000 ) ) ;
#323 = EDGE_CURVE ( 'NONE', #294, #88, #179, .T. ) ;
#324 = EDGE_CURVE ( 'NONE', #294, #97, #247, .T. ) ;
#325 = DIRECTION ( 'NONE',  ( 0.0000000000000000000, 1.000000000000000000, 0.0000000000000000000 ) ) ;
#326 = EDGE_CURVE ( 'NONE', #232, #294, #17, .T. ) ;
#327 = LINE ( 'NONE', #9, #313 ) ;
#328 = EDGE_CURVE ( 'NONE', #120, #74, #39, .T. ) ;
#329 = DIRECTION ( 'NONE',  ( 0.0000000000000000000, 0.0000000000000000000, -1.000000000000000000 ) ) ;
#330 = EDGE_CURVE ( 'NONE', #232, #177, #244, .T. ) ;
#331 = EDGE_CURVE ( 'NONE', #211, #232, #41, .T. ) ;
#332 = DIRECTION ( 'NONE',  ( -1.000000000000000000, 0.0000000000000000000, 0.0000000000000000000 ) ) ;
#333 = EDGE_CURVE ( 'NONE', #211, #236, #198, .T. ) ;
#334 = PLANE ( 'NONE',  #254 ) ;
#335 = EDGE_CURVE ( 'NONE', #343, #276, #265, .T. ) ;
#336 = ORIENTED_EDGE ( 'NONE', *, *, #331, .T. ) ;
#337 = EDGE_CURVE ( 'NONE', #146, #343, #189, .T. ) ;
#338 = EDGE_CURVE ( 'NONE', #73, #150, #258, .T. ) ;
#339 = LINE ( 'NONE', #10, #239 ) ;
#340 = ADVANCED_FACE ( 'NONE', ( #32 ), #168, .T. ) ;
#341 = EDGE_CURVE ( 'NONE', #73, #132, #180, .T. ) ;
#342 = EDGE_CURVE ( 'NONE', #74, #120, #355, .T. ) ;
#343 = VERTEX_POINT ( 'NONE', #169 ) ;
#344 = EDGE_CURVE ( 'NONE', #46, #120, #339, .T. ) ;
#345 = EDGE_CURVE ( 'NONE', #158, #276, #13, .T. ) ;
#346 = FILL_AREA_STYLE_COLOUR ( '', #72 ) ;
#347 = EDGE_CURVE ( 'NONE', #146, #158, #102, .T. ) ;
#348 = VECTOR ( 'NONE', #361, 1000.000000000000000 ) ;
#349 = DIRECTION ( 'NONE',  ( 0.0000000000000000000, 1.000000000000000000, 0.0000000000000000000 ) ) ;
#350 = EDGE_CURVE ( 'NONE', #150, #73, #93, .T. ) ;
#351 = DIRECTION ( 'NONE',  ( 0.0000000000000000000, -0.0000000000000000000, 1.000000000000000000 ) ) ;
#352 = ORIENTED_EDGE ( 'NONE', *, *, #215, .T. ) ;
#353 = EDGE_CURVE ( 'NONE', #132, #46, #174, .T. ) ;
#354 = CARTESIAN_POINT ( 'NONE',  ( 1.530808498934192600E-016, 3.000000000000000000, 1.000000000000000900 ) ) ;
#355 = CIRCLE ( 'NONE', #320, 1.500000000000000200 ) ;
#356 = VECTOR ( 'NONE', #242, 1000.000000000000000 ) ;
#357 = CARTESIAN_POINT ( 'NONE',  ( 0.5773502691896260600, 2.000000000000000000, -0.9999999999999997800 ) ) ;
#358 = EDGE_CURVE ( 'NONE', #150, #46, #234, .T. ) ;
#359 = EDGE_CURVE ( 'NONE', #97, #210, #327, .T. ) ;
#360 = DIRECTION ( 'NONE',  ( -0.5000000000000001100, 0.0000000000000000000, -0.8660254037844386000 ) ) ;
#361 = DIRECTION ( 'NONE',  ( -0.0000000000000000000, -1.000000000000000000, -0.0000000000000000000 ) ) ;
#362 = CARTESIAN_POINT ( 'NONE',  ( 1.154700538379251700, 2.000000000000000000, -1.860964649275394900E-017 ) ) ;
#363 = CARTESIAN_POINT ( 'NONE',  ( 0.5773502691896256200, 2.000000000000000000, 1.000000000000000000 ) ) ;
#364 = DIRECTION ( 'NONE',  ( 0.0000000000000000000, -1.000000000000000000, 0.0000000000000000000 ) ) ;
#365 = VECTOR ( 'NONE', #383, 1000.000000000000000 ) ;
#366 = PLANE ( 'NONE',  #309 ) ;
#367 =( NAMED_UNIT ( * ) SI_UNIT ( $, .STERADIAN. ) SOLID_ANGLE_UNIT ( ) );
#368 = DIRECTION ( 'NONE',  ( 0.0000000000000000000, 1.000000000000000000, 0.0000000000000000000 ) ) ;
#369 = ORIENTED_EDGE ( 'NONE', *, *, #328, .T. ) ;
#370 = DIRECTION ( 'NONE',  ( 1.000000000000000000, 0.0000000000000000000, 0.0000000000000000000 ) ) ;
#371 = CARTESIAN_POINT ( 'NONE',  ( 0.0000000000000000000, 3.000000000000000000, 0.0000000000000000000 ) ) ;
#372 = CARTESIAN_POINT ( 'NONE',  ( -0.5773502691896257300, 2.000000000000000000, -0.9999999999999995600 ) ) ;
#373 = ADVANCED_FACE ( 'NONE', ( #164 ), #366, .T. ) ;
#374 = ORIENTED_EDGE ( 'NONE', *, *, #353, .T. ) ;
#375 = VECTOR ( 'NONE', #275, 1000.000000000000100 ) ;
#376 = ORIENTED_EDGE ( 'NONE', *, *, #321, .T. ) ;
#377 = ORIENTED_EDGE ( 'NONE', *, *, #337, .T. ) ;
#378 = CIRCLE ( 'NONE', #290, 1.500000000000000200 ) ;
#379 = CARTESIAN_POINT ( 'NONE',  ( 1.154700538379251700, 2.000000000000000000, -1.860964649275394900E-017 ) ) ;
#380 = PRODUCT_DEFINITION_CONTEXT ( 'detailed design', #390, 'design' ) ;
#381 = ORIENTED_EDGE ( 'NONE', *, *, #341, .F. ) ;
#382 = CARTESIAN_POINT ( 'NONE',  ( -1.154700538379251700, 2.000000000000000000, 4.568410828183210000E-016 ) ) ;
#383 = DIRECTION ( 'NONE',  ( -0.0000000000000000000, -1.000000000000000000, -0.0000000000000000000 ) ) ;
#384 = DIRECTION ( 'NONE',  ( 0.0000000000000000000, 0.0000000000000000000, 1.000000000000000000 ) ) ;
#385 = DIRECTION ( 'NONE',  ( 0.0000000000000000000, -0.0000000000000000000, 1.000000000000000000 ) ) ;
#386 = CARTESIAN_POINT ( 'NONE',  ( 1.154700538379251700, 2.000000000000000000, -1.860964649275394900E-017 ) ) ;
#387 = ORIENTED_EDGE ( 'NONE', *, *, #342, .T. ) ;
#388 = APPLICATION_PROTOCOL_DEFINITION ( 'draft international standard', 'automotive_design', 1998, #14 ) ;
#389 = ADVANCED_FACE ( 'NONE', ( #69 ), #78, .F. ) ;
#390 = APPLICATION_CONTEXT ( 'automotive_design' ) ;
#391 = CARTESIAN_POINT ( 'NONE',  ( -1.154700538379251700, 0.0000000000000000000, 4.568410828183210000E-016 ) ) ;
#392 = CARTESIAN_POINT ( 'NONE',  ( -0.5773502691896260600, 0.0000000000000000000, 1.000000000000000000 ) ) ;
#393 = VECTOR ( 'NONE', #217, 999.9999999999998900 ) ;
#394 = ORIENTED_EDGE ( 'NONE', *, *, #270, .F. ) ;
#395 = ORIENTED_EDGE ( 'NONE', *, *, #267, .F. ) ;
#396 = VECTOR ( 'NONE', #225, 1000.000000000000000 ) ;
#397 = PLANE ( 'NONE',  #260 ) ;
#398 = PRODUCT_DEFINITION_SHAPE ( 'NONE', 'NONE',  #285 ) ;
ENDSEC;
END-ISO-10303-21;
