ISO-10303-21;
HEADER;
FILE_DESCRIPTION (( 'STEP AP214' ),
    '1' );
FILE_NAME ('M5 washer.step',
    '2018-06-21T12:59:10',
    ( 'User' ),
    ( 'china' ),
    'SwSTEP 2.0',
    'SolidWorks 2016',
    '' );
FILE_SCHEMA (( 'AUTOMOTIVE_DESIGN' ));
ENDSEC;

DATA;
#1 = UNCERTAINTY_MEASURE_WITH_UNIT (LENGTH_MEASURE( 1.000000000000000100E-005 ), #23, 'distance_accuracy_value', 'NONE');
#2 = CARTESIAN_POINT ( 'NONE',  ( 0.0000000000000000000, 0.0000000000000000000, 0.5999999999999999800 ) ) ;
#3 = AXIS2_PLACEMENT_3D ( 'NONE', #2, #30, #87 ) ;
#4 =( NAMED_UNIT ( * ) PLANE_ANGLE_UNIT ( ) SI_UNIT ( $, .RADIAN. ) );
#5 = ADVANCED_FACE ( 'NONE', ( #195, #45 ), #149, .T. ) ;
#6 = DIRECTION ( 'NONE',  ( 1.000000000000000000, 0.0000000000000000000, 0.0000000000000000000 ) ) ;
#7 = DIRECTION ( 'NONE',  ( 0.0000000000000000000, 0.0000000000000000000, 1.000000000000000000 ) ) ;
#8 = DIRECTION ( 'NONE',  ( 1.000000000000000000, 0.0000000000000000000, 0.0000000000000000000 ) ) ;
#9 = DIRECTION ( 'NONE',  ( 1.000000000000000000, 0.0000000000000000000, 0.0000000000000000000 ) ) ;
#10 = DIRECTION ( 'NONE',  ( 0.0000000000000000000, 0.0000000000000000000, 1.000000000000000000 ) ) ;
#11 = PLANE ( 'NONE',  #208 ) ;
#12 = ORIENTED_EDGE ( 'NONE', *, *, #108, .F. ) ;
#13 = VECTOR ( 'NONE', #10, 1000.000000000000000 ) ;
#14 = SURFACE_SIDE_STYLE ('',( #206 ) ) ;
#15 = VERTEX_POINT ( 'NONE', #88 ) ;
#16 = DIRECTION ( 'NONE',  ( 0.0000000000000000000, 0.0000000000000000000, 1.000000000000000000 ) ) ;
#17 = DIRECTION ( 'NONE',  ( 1.000000000000000000, 0.0000000000000000000, 0.0000000000000000000 ) ) ;
#18 = CARTESIAN_POINT ( 'NONE',  ( 0.0000000000000000000, 0.0000000000000000000, 0.0000000000000000000 ) ) ;
#19 = EDGE_CURVE ( 'NONE', #15, #89, #197, .T. ) ;
#20 = DIRECTION ( 'NONE',  ( 1.000000000000000000, 0.0000000000000000000, 0.0000000000000000000 ) ) ;
#21 = ORIENTED_EDGE ( 'NONE', *, *, #183, .T. ) ;
#22 = FILL_AREA_STYLE_COLOUR ( '', #177 ) ;
#23 =( LENGTH_UNIT ( ) NAMED_UNIT ( * ) SI_UNIT ( .MILLI., .METRE. ) );
#24 = DIRECTION ( 'NONE',  ( 0.0000000000000000000, 0.0000000000000000000, 1.000000000000000000 ) ) ;
#25 = PRODUCT_DEFINITION_SHAPE ( 'NONE', 'NONE',  #154 ) ;
#26 = SHAPE_DEFINITION_REPRESENTATION ( #25, #27 ) ;
#27 = ADVANCED_BREP_SHAPE_REPRESENTATION ( 'M5 washer', ( #86, #158 ), #166 ) ;
#28 = DIRECTION ( 'NONE',  ( 1.000000000000000000, 0.0000000000000000000, 0.0000000000000000000 ) ) ;
#29 = ORIENTED_EDGE ( 'NONE', *, *, #19, .F. ) ;
#30 = DIRECTION ( 'NONE',  ( 0.0000000000000000000, 0.0000000000000000000, 1.000000000000000000 ) ) ;
#31 = EDGE_CURVE ( 'NONE', #46, #84, #204, .T. ) ;
#32 = PRODUCT_CONTEXT ( 'NONE', #43, 'mechanical' ) ;
#33 = PRESENTATION_STYLE_ASSIGNMENT (( #193 ) ) ;
#34 = SURFACE_STYLE_FILL_AREA ( #170 ) ;
#35 = CARTESIAN_POINT ( 'NONE',  ( 0.0000000000000000000, 0.0000000000000000000, 0.5999999999999999800 ) ) ;
#36 =( NAMED_UNIT ( * ) SI_UNIT ( $, .STERADIAN. ) SOLID_ANGLE_UNIT ( ) );
#37 = CARTESIAN_POINT ( 'NONE',  ( 0.0000000000000000000, 0.0000000000000000000, 0.5999999999999999800 ) ) ;
#38 = UNCERTAINTY_MEASURE_WITH_UNIT (LENGTH_MEASURE( 1.000000000000000100E-005 ), #184, 'distance_accuracy_value', 'NONE');
#39 = CARTESIAN_POINT ( 'NONE',  ( -2.600000000000000100, 3.184081677783118200E-016, 0.0000000000000000000 ) ) ;
#40 = DIRECTION ( 'NONE',  ( 0.0000000000000000000, 0.0000000000000000000, -1.000000000000000000 ) ) ;
#41 = EDGE_LOOP ( 'NONE', ( #157, #134, #185, #85 ) ) ;
#42 = ORIENTED_EDGE ( 'NONE', *, *, #106, .T. ) ;
#43 = APPLICATION_CONTEXT ( 'automotive_design' ) ;
#44 = APPLICATION_PROTOCOL_DEFINITION ( 'draft international standard', 'automotive_design', 1998, #148 ) ;
#45 = FACE_BOUND ( 'NONE', #210, .T. ) ;
#46 = VERTEX_POINT ( 'NONE', #146 ) ;
#47 = DIRECTION ( 'NONE',  ( -1.000000000000000000, 0.0000000000000000000, 0.0000000000000000000 ) ) ;
#48 = DIRECTION ( 'NONE',  ( 1.000000000000000000, 0.0000000000000000000, 0.0000000000000000000 ) ) ;
#49 = ADVANCED_FACE ( 'NONE', ( #178, #200 ), #11, .F. ) ;
#50 = CYLINDRICAL_SURFACE ( 'NONE', #165, 5.100000000000000500 ) ;
#51 = ORIENTED_EDGE ( 'NONE', *, *, #96, .T. ) ;
#52 = CARTESIAN_POINT ( 'NONE',  ( 5.100000000000000500, 0.0000000000000000000, 0.0000000000000000000 ) ) ;
#53 = DIRECTION ( 'NONE',  ( 0.0000000000000000000, 0.0000000000000000000, 1.000000000000000000 ) ) ;
#54 = DIRECTION ( 'NONE',  ( 1.000000000000000000, 0.0000000000000000000, 0.0000000000000000000 ) ) ;
#55 = EDGE_LOOP ( 'NONE', ( #12, #99 ) ) ;
#56 = COLOUR_RGB ( '',0.4901960784313725300, 0.4901960784313725300, 0.4901960784313725300 ) ;
#57 = FACE_OUTER_BOUND ( 'NONE', #41, .T. ) ;
#58 = CYLINDRICAL_SURFACE ( 'NONE', #167, 2.600000000000000100 ) ;
#59 = CIRCLE ( 'NONE', #171, 2.600000000000000100 ) ;
#60 = CYLINDRICAL_SURFACE ( 'NONE', #168, 5.100000000000000500 ) ;
#61 = VECTOR ( 'NONE', #79, 1000.000000000000000 ) ;
#62 = FACE_OUTER_BOUND ( 'NONE', #139, .T. ) ;
#63 = SURFACE_SIDE_STYLE ('',( #34 ) ) ;
#64 = FACE_OUTER_BOUND ( 'NONE', #133, .T. ) ;
#65 = LINE ( 'NONE', #39, #61 ) ;
#66 = VECTOR ( 'NONE', #53, 1000.000000000000000 ) ;
#67 = CIRCLE ( 'NONE', #173, 5.100000000000000500 ) ;
#68 = LINE ( 'NONE', #77, #66 ) ;
#69 = CARTESIAN_POINT ( 'NONE',  ( 0.0000000000000000000, 0.0000000000000000000, 0.0000000000000000000 ) ) ;
#70 = VECTOR ( 'NONE', #7, 1000.000000000000000 ) ;
#71 = CIRCLE ( 'NONE', #175, 5.100000000000000500 ) ;
#72 = CIRCLE ( 'NONE', #179, 5.100000000000000500 ) ;
#73 = ADVANCED_FACE ( 'NONE', ( #186 ), #192, .F. ) ;
#74 = CARTESIAN_POINT ( 'NONE',  ( 2.600000000000000100, 0.0000000000000000000, 0.5999999999999999800 ) ) ;
#75 = CARTESIAN_POINT ( 'NONE',  ( 5.100000000000000500, 0.0000000000000000000, 0.0000000000000000000 ) ) ;
#76 = EDGE_CURVE ( 'NONE', #89, #15, #191, .T. ) ;
#77 = CARTESIAN_POINT ( 'NONE',  ( 2.600000000000000100, 0.0000000000000000000, 0.0000000000000000000 ) ) ;
#78 = LINE ( 'NONE', #75, #70 ) ;
#79 = DIRECTION ( 'NONE',  ( 0.0000000000000000000, 0.0000000000000000000, 1.000000000000000000 ) ) ;
#80 = EDGE_CURVE ( 'NONE', #161, #90, #189, .T. ) ;
#81 = CARTESIAN_POINT ( 'NONE',  ( 0.0000000000000000000, 0.0000000000000000000, 0.0000000000000000000 ) ) ;
#82 =( NAMED_UNIT ( * ) PLANE_ANGLE_UNIT ( ) SI_UNIT ( $, .RADIAN. ) );
#83 = EDGE_LOOP ( 'NONE', ( #147, #29 ) ) ;
#84 = VERTEX_POINT ( 'NONE', #116 ) ;
#85 = ORIENTED_EDGE ( 'NONE', *, *, #106, .F. ) ;
#86 = MANIFOLD_SOLID_BREP ( 'ÊäÈë1', #102 ) ;
#87 = DIRECTION ( 'NONE',  ( 1.000000000000000000, 0.0000000000000000000, 0.0000000000000000000 ) ) ;
#88 = CARTESIAN_POINT ( 'NONE',  ( -2.600000000000000100, 3.184081677783118200E-016, 0.5999999999999999800 ) ) ;
#89 = VERTEX_POINT ( 'NONE', #74 ) ;
#90 = VERTEX_POINT ( 'NONE', #174 ) ;
#91 =( LENGTH_UNIT ( ) NAMED_UNIT ( * ) SI_UNIT ( .MILLI., .METRE. ) );
#92 = VERTEX_POINT ( 'NONE', #176 ) ;
#93 = ORIENTED_EDGE ( 'NONE', *, *, #112, .T. ) ;
#94 = ORIENTED_EDGE ( 'NONE', *, *, #80, .F. ) ;
#95 = VERTEX_POINT ( 'NONE', #52 ) ;
#96 = EDGE_CURVE ( 'NONE', #92, #84, #190, .T. ) ;
#97 = EDGE_LOOP ( 'NONE', ( #51, #93 ) ) ;
#98 = EDGE_LOOP ( 'NONE', ( #136, #94, #111, #212 ) ) ;
#99 = ORIENTED_EDGE ( 'NONE', *, *, #118, .F. ) ;
#100 = DIRECTION ( 'NONE',  ( 0.0000000000000000000, 0.0000000000000000000, 1.000000000000000000 ) ) ;
#101 = ORIENTED_EDGE ( 'NONE', *, *, #31, .F. ) ;
#102 = CLOSED_SHELL ( 'NONE', ( #140, #205, #5, #49, #127, #73 ) ) ;
#103 = DIRECTION ( 'NONE',  ( 0.0000000000000000000, 0.0000000000000000000, 1.000000000000000000 ) ) ;
#104 = DIRECTION ( 'NONE',  ( 0.0000000000000000000, 0.0000000000000000000, 1.000000000000000000 ) ) ;
#105 = FILL_AREA_STYLE_COLOUR ( '', #56 ) ;
#106 = EDGE_CURVE ( 'NONE', #95, #92, #78, .T. ) ;
#107 = ORIENTED_EDGE ( 'NONE', *, *, #112, .F. ) ;
#108 = EDGE_CURVE ( 'NONE', #95, #46, #72, .T. ) ;
#109 = ORIENTED_EDGE ( 'NONE', *, *, #19, .T. ) ;
#110 = EDGE_CURVE ( 'NONE', #161, #89, #68, .T. ) ;
#111 = ORIENTED_EDGE ( 'NONE', *, *, #110, .T. ) ;
#112 = EDGE_CURVE ( 'NONE', #84, #92, #71, .T. ) ;
#113 = CARTESIAN_POINT ( 'NONE',  ( 0.0000000000000000000, 0.0000000000000000000, 0.0000000000000000000 ) ) ;
#114 =( NAMED_UNIT ( * ) SI_UNIT ( $, .STERADIAN. ) SOLID_ANGLE_UNIT ( ) );
#115 = ORIENTED_EDGE ( 'NONE', *, *, #110, .F. ) ;
#116 = CARTESIAN_POINT ( 'NONE',  ( -5.100000000000000500, 6.245698675651501800E-016, 0.5999999999999999800 ) ) ;
#117 = CARTESIAN_POINT ( 'NONE',  ( 0.0000000000000000000, 0.0000000000000000000, 0.0000000000000000000 ) ) ;
#118 = EDGE_CURVE ( 'NONE', #46, #95, #67, .T. ) ;
#119 = ORIENTED_EDGE ( 'NONE', *, *, #80, .T. ) ;
#120 = DIRECTION ( 'NONE',  ( 1.000000000000000000, 0.0000000000000000000, 0.0000000000000000000 ) ) ;
#121 = UNCERTAINTY_MEASURE_WITH_UNIT (LENGTH_MEASURE( 1.000000000000000100E-005 ), #91, 'distance_accuracy_value', 'NONE');
#122 = DIRECTION ( 'NONE',  ( 0.0000000000000000000, 0.0000000000000000000, -1.000000000000000000 ) ) ;
#123 = DIRECTION ( 'NONE',  ( 0.0000000000000000000, 0.0000000000000000000, 1.000000000000000000 ) ) ;
#124 = PRODUCT_DEFINITION_CONTEXT ( 'detailed design', #148, 'design' ) ;
#125 = ORIENTED_EDGE ( 'NONE', *, *, #118, .T. ) ;
#126 = FILL_AREA_STYLE ('',( #22 ) ) ;
#127 = ADVANCED_FACE ( 'NONE', ( #64 ), #60, .T. ) ;
#128 = SURFACE_STYLE_USAGE ( .BOTH. , #14 ) ;
#129 = AXIS2_PLACEMENT_3D ( 'NONE', #113, #122, #138 ) ;
#130 = CARTESIAN_POINT ( 'NONE',  ( 0.0000000000000000000, 0.0000000000000000000, 0.5999999999999999800 ) ) ;
#131 = CARTESIAN_POINT ( 'NONE',  ( 0.0000000000000000000, 0.0000000000000000000, 0.0000000000000000000 ) ) ;
#132 = DIRECTION ( 'NONE',  ( 0.0000000000000000000, 0.0000000000000000000, 1.000000000000000000 ) ) ;
#133 = EDGE_LOOP ( 'NONE', ( #101, #125, #42, #107 ) ) ;
#134 = ORIENTED_EDGE ( 'NONE', *, *, #31, .T. ) ;
#135 = CARTESIAN_POINT ( 'NONE',  ( 0.0000000000000000000, 0.0000000000000000000, 0.5999999999999999800 ) ) ;
#136 = ORIENTED_EDGE ( 'NONE', *, *, #150, .F. ) ;
#137 = APPLICATION_PROTOCOL_DEFINITION ( 'draft international standard', 'automotive_design', 1998, #43 ) ;
#138 = DIRECTION ( 'NONE',  ( -1.000000000000000000, 0.0000000000000000000, 0.0000000000000000000 ) ) ;
#139 = EDGE_LOOP ( 'NONE', ( #156, #144, #109, #115 ) ) ;
#140 = ADVANCED_FACE ( 'NONE', ( #62 ), #58, .F. ) ;
#141 =( NAMED_UNIT ( * ) PLANE_ANGLE_UNIT ( ) SI_UNIT ( $, .RADIAN. ) );
#142 = DIRECTION ( 'NONE',  ( 1.000000000000000000, 0.0000000000000000000, 0.0000000000000000000 ) ) ;
#143 = DIRECTION ( 'NONE',  ( 0.0000000000000000000, 0.0000000000000000000, 1.000000000000000000 ) ) ;
#144 = ORIENTED_EDGE ( 'NONE', *, *, #150, .T. ) ;
#145 = CARTESIAN_POINT ( 'NONE',  ( 0.0000000000000000000, 0.0000000000000000000, 0.0000000000000000000 ) ) ;
#146 = CARTESIAN_POINT ( 'NONE',  ( -5.100000000000000500, 6.245698675651501800E-016, 0.0000000000000000000 ) ) ;
#147 = ORIENTED_EDGE ( 'NONE', *, *, #76, .F. ) ;
#148 = APPLICATION_CONTEXT ( 'automotive_design' ) ;
#149 = PLANE ( 'NONE',  #129 ) ;
#150 = EDGE_CURVE ( 'NONE', #90, #15, #65, .T. ) ;
#151 = DIRECTION ( 'NONE',  ( 0.0000000000000000000, 0.0000000000000000000, 1.000000000000000000 ) ) ;
#152 = PRODUCT_RELATED_PRODUCT_CATEGORY ( 'part', '', ( #159 ) ) ;
#153 = PRODUCT_DEFINITION_FORMATION_WITH_SPECIFIED_SOURCE ( 'ÈÎºÎ', '', #159, .NOT_KNOWN. ) ;
#154 = PRODUCT_DEFINITION ( 'Î´Öª', '', #153, #124 ) ;
#155 = DIRECTION ( 'NONE',  ( 0.0000000000000000000, 0.0000000000000000000, 1.000000000000000000 ) ) ;
#156 = ORIENTED_EDGE ( 'NONE', *, *, #183, .F. ) ;
#157 = ORIENTED_EDGE ( 'NONE', *, *, #108, .T. ) ;
#158 = AXIS2_PLACEMENT_3D ( 'NONE', #145, #123, #20 ) ;
#159 = PRODUCT ( 'M5 washer', 'M5 washer', '', ( #32 ) ) ;
#160 =( GEOMETRIC_REPRESENTATION_CONTEXT ( 3 ) GLOBAL_UNCERTAINTY_ASSIGNED_CONTEXT ( ( #121 ) ) GLOBAL_UNIT_ASSIGNED_CONTEXT ( ( #91, #4, #114 ) ) REPRESENTATION_CONTEXT ( 'NONE', 'WORKASPACE' ) );
#161 = VERTEX_POINT ( 'NONE', #211 ) ;
#162 = MECHANICAL_DESIGN_GEOMETRIC_PRESENTATION_REPRESENTATION (  '', ( #164 ), #160 ) ;
#163 = PRESENTATION_LAYER_ASSIGNMENT (  '', '', ( #164 ) ) ;
#164 = STYLED_ITEM ( 'NONE', ( #33 ), #27 ) ;
#165 = AXIS2_PLACEMENT_3D ( 'NONE', #81, #182, #120 ) ;
#166 =( GEOMETRIC_REPRESENTATION_CONTEXT ( 3 ) GLOBAL_UNCERTAINTY_ASSIGNED_CONTEXT ( ( #38 ) ) GLOBAL_UNIT_ASSIGNED_CONTEXT ( ( #184, #82, #213 ) ) REPRESENTATION_CONTEXT ( 'NONE', 'WORKASPACE' ) );
#167 = AXIS2_PLACEMENT_3D ( 'NONE', #131, #143, #17 ) ;
#168 = AXIS2_PLACEMENT_3D ( 'NONE', #117, #16, #180 ) ;
#169 = PRESENTATION_STYLE_ASSIGNMENT (( #128 ) ) ;
#170 = FILL_AREA_STYLE ('',( #105 ) ) ;
#171 = AXIS2_PLACEMENT_3D ( 'NONE', #18, #132, #28 ) ;
#172 = DIRECTION ( 'NONE',  ( 1.000000000000000000, 0.0000000000000000000, 0.0000000000000000000 ) ) ;
#173 = AXIS2_PLACEMENT_3D ( 'NONE', #209, #104, #9 ) ;
#174 = CARTESIAN_POINT ( 'NONE',  ( -2.600000000000000100, 3.184081677783118200E-016, 0.0000000000000000000 ) ) ;
#175 = AXIS2_PLACEMENT_3D ( 'NONE', #37, #155, #54 ) ;
#176 = CARTESIAN_POINT ( 'NONE',  ( 5.100000000000000500, 0.0000000000000000000, 0.5999999999999999800 ) ) ;
#177 = COLOUR_RGB ( '',0.4901960784313725300, 0.4901960784313725300, 0.4901960784313725300 ) ;
#178 = FACE_OUTER_BOUND ( 'NONE', #97, .T. ) ;
#179 = AXIS2_PLACEMENT_3D ( 'NONE', #207, #103, #8 ) ;
#180 = DIRECTION ( 'NONE',  ( 1.000000000000000000, 0.0000000000000000000, 0.0000000000000000000 ) ) ;
#181 = AXIS2_PLACEMENT_3D ( 'NONE', #130, #24, #142 ) ;
#182 = DIRECTION ( 'NONE',  ( 0.0000000000000000000, 0.0000000000000000000, 1.000000000000000000 ) ) ;
#183 = EDGE_CURVE ( 'NONE', #90, #161, #59, .T. ) ;
#184 =( LENGTH_UNIT ( ) NAMED_UNIT ( * ) SI_UNIT ( .MILLI., .METRE. ) );
#185 = ORIENTED_EDGE ( 'NONE', *, *, #96, .F. ) ;
#186 = FACE_OUTER_BOUND ( 'NONE', #98, .T. ) ;
#187 =( GEOMETRIC_REPRESENTATION_CONTEXT ( 3 ) GLOBAL_UNCERTAINTY_ASSIGNED_CONTEXT ( ( #1 ) ) GLOBAL_UNIT_ASSIGNED_CONTEXT ( ( #23, #141, #36 ) ) REPRESENTATION_CONTEXT ( 'NONE', 'WORKASPACE' ) );
#188 = MECHANICAL_DESIGN_GEOMETRIC_PRESENTATION_REPRESENTATION (  '', ( #198 ), #187 ) ;
#189 = CIRCLE ( 'NONE', #214, 2.600000000000000100 ) ;
#190 = CIRCLE ( 'NONE', #181, 5.100000000000000500 ) ;
#191 = CIRCLE ( 'NONE', #201, 2.600000000000000100 ) ;
#192 = CYLINDRICAL_SURFACE ( 'NONE', #199, 2.600000000000000100 ) ;
#193 = SURFACE_STYLE_USAGE ( .BOTH. , #63 ) ;
#194 = CARTESIAN_POINT ( 'NONE',  ( -5.100000000000000500, 6.245698675651501800E-016, 0.0000000000000000000 ) ) ;
#195 = FACE_OUTER_BOUND ( 'NONE', #55, .T. ) ;
#196 = PRESENTATION_LAYER_ASSIGNMENT (  '', '', ( #198 ) ) ;
#197 = CIRCLE ( 'NONE', #3, 2.600000000000000100 ) ;
#198 = STYLED_ITEM ( 'NONE', ( #169 ), #86 ) ;
#199 = AXIS2_PLACEMENT_3D ( 'NONE', #69, #202, #172 ) ;
#200 = FACE_BOUND ( 'NONE', #83, .T. ) ;
#201 = AXIS2_PLACEMENT_3D ( 'NONE', #35, #151, #48 ) ;
#202 = DIRECTION ( 'NONE',  ( 0.0000000000000000000, 0.0000000000000000000, 1.000000000000000000 ) ) ;
#203 = CARTESIAN_POINT ( 'NONE',  ( 0.0000000000000000000, 0.0000000000000000000, 0.0000000000000000000 ) ) ;
#204 = LINE ( 'NONE', #194, #13 ) ;
#205 = ADVANCED_FACE ( 'NONE', ( #57 ), #50, .T. ) ;
#206 = SURFACE_STYLE_FILL_AREA ( #126 ) ;
#207 = CARTESIAN_POINT ( 'NONE',  ( 0.0000000000000000000, 0.0000000000000000000, 0.0000000000000000000 ) ) ;
#208 = AXIS2_PLACEMENT_3D ( 'NONE', #135, #40, #47 ) ;
#209 = CARTESIAN_POINT ( 'NONE',  ( 0.0000000000000000000, 0.0000000000000000000, 0.0000000000000000000 ) ) ;
#210 = EDGE_LOOP ( 'NONE', ( #119, #21 ) ) ;
#211 = CARTESIAN_POINT ( 'NONE',  ( 2.600000000000000100, 0.0000000000000000000, 0.0000000000000000000 ) ) ;
#212 = ORIENTED_EDGE ( 'NONE', *, *, #76, .T. ) ;
#213 =( NAMED_UNIT ( * ) SI_UNIT ( $, .STERADIAN. ) SOLID_ANGLE_UNIT ( ) );
#214 = AXIS2_PLACEMENT_3D ( 'NONE', #203, #100, #6 ) ;
ENDSEC;
END-ISO-10303-21;
