ISO-10303-21;
HEADER;
FILE_DESCRIPTION (( 'STEP AP214' ),
    '1' );
FILE_NAME ('M5 T-Slot Nut.step',
    '2018-06-21T12:59:08',
    ( 'User' ),
    ( 'china' ),
    'SwSTEP 2.0',
    'SolidWorks 2016',
    '' );
FILE_SCHEMA (( 'AUTOMOTIVE_DESIGN' ));
ENDSEC;

DATA;
#1 = VECTOR ( 'NONE', #89, 1000.000000000000000 ) ;
#2 = DIRECTION ( 'NONE',  ( -1.000000000000000000, 0.0000000000000000000, 0.0000000000000000000 ) ) ;
#3 = LINE ( 'NONE', #128, #229 ) ;
#4 = LINE ( 'NONE', #91, #1 ) ;
#5 = CARTESIAN_POINT ( 'NONE',  ( 0.0000000000000000000, 0.0000000000000000000, 2.929024353308020200 ) ) ;
#6 =( LENGTH_UNIT ( ) NAMED_UNIT ( * ) SI_UNIT ( .MILLI., .METRE. ) );
#7 = VECTOR ( 'NONE', #125, 1000.000000000000000 ) ;
#8 = CIRCLE ( 'NONE', #300, 2.500000000000000000 ) ;
#9 = CIRCLE ( 'NONE', #299, 2.732915920968304900 ) ;
#10 = CARTESIAN_POINT ( 'NONE',  ( -3.000000000000000000, 2.750000000000000000, 2.662749412098199800 ) ) ;
#11 = CARTESIAN_POINT ( 'NONE',  ( 2.500000000000000000, 3.061616997868383100E-016, 2.662749412098199800 ) ) ;
#12 = CARTESIAN_POINT ( 'NONE',  ( 3.000000000000000000, 2.750000000000000000, 2.662749412098199800 ) ) ;
#13 = LINE ( 'NONE', #242, #7 ) ;
#14 = VECTOR ( 'NONE', #86, 1000.000000000000000 ) ;
#15 = LINE ( 'NONE', #280, #17 ) ;
#16 = DIRECTION ( 'NONE',  ( -1.000000000000000000, 0.0000000000000000000, 0.0000000000000000000 ) ) ;
#17 = VECTOR ( 'NONE', #316, 1000.000000000000000 ) ;
#18 = DIRECTION ( 'NONE',  ( -1.000000000000000000, 0.0000000000000000000, 0.0000000000000000000 ) ) ;
#19 = ADVANCED_FACE ( 'NONE', ( #170 ), #66, .F. ) ;
#20 = LINE ( 'NONE', #240, #14 ) ;
#21 = VECTOR ( 'NONE', #212, 1000.000000000000100 ) ;
#22 = DIRECTION ( 'NONE',  ( -1.000000000000000000, 0.0000000000000000000, 0.0000000000000000000 ) ) ;
#23 = CIRCLE ( 'NONE', #336, 2.732915920968304900 ) ;
#24 = VECTOR ( 'NONE', #411, 1000.000000000000000 ) ;
#25 = CIRCLE ( 'NONE', #324, 2.500000000000000000 ) ;
#26 = VECTOR ( 'NONE', #151, 1000.000000000000100 ) ;
#27 = DIRECTION ( 'NONE',  ( -1.000000000000000000, 0.0000000000000000000, 0.0000000000000000000 ) ) ;
#28 = CARTESIAN_POINT ( 'NONE',  ( 0.0000000000000000000, 0.0000000000000000000, -1.437250587901797800 ) ) ;
#29 = CARTESIAN_POINT ( 'NONE',  ( 0.0000000000000000000, 0.0000000000000000000, -1.437250587901797800 ) ) ;
#30 = LINE ( 'NONE', #378, #24 ) ;
#31 = CARTESIAN_POINT ( 'NONE',  ( 3.000000000000000000, 4.750000000000000000, -0.8372505879017979600 ) ) ;
#32 = DIRECTION ( 'NONE',  ( 0.0000000000000000000, 0.0000000000000000000, -1.000000000000000000 ) ) ;
#33 = VECTOR ( 'NONE', #274, 1000.000000000000000 ) ;
#34 = LINE ( 'NONE', #119, #26 ) ;
#35 = DIRECTION ( 'NONE',  ( -1.000000000000000000, 0.0000000000000000000, 0.0000000000000000000 ) ) ;
#36 = VECTOR ( 'NONE', #59, 1000.000000000000000 ) ;
#37 = LINE ( 'NONE', #375, #21 ) ;
#38 = LINE ( 'NONE', #149, #33 ) ;
#39 = VECTOR ( 'NONE', #118, 1000.000000000000000 ) ;
#40 =( LENGTH_UNIT ( ) NAMED_UNIT ( * ) SI_UNIT ( .MILLI., .METRE. ) );
#41 = DIRECTION ( 'NONE',  ( 1.000000000000000000, 0.0000000000000000000, 0.0000000000000000000 ) ) ;
#42 =( NAMED_UNIT ( * ) SI_UNIT ( $, .STERADIAN. ) SOLID_ANGLE_UNIT ( ) );
#43 = CIRCLE ( 'NONE', #334, 2.500000000000000000 ) ;
#44 = CYLINDRICAL_SURFACE ( 'NONE', #326, 2.732915920968304900 ) ;
#45 = COLOUR_RGB ( '',0.8705882352941176600, 0.8705882352941176600, 0.8705882352941176600 ) ;
#46 = ORIENTED_EDGE ( 'NONE', *, *, #417, .T. ) ;
#47 = CARTESIAN_POINT ( 'NONE',  ( 3.000000000000000000, -4.750000000000000000, 0.6627494120982020400 ) ) ;
#48 = VERTEX_POINT ( 'NONE', #295 ) ;
#49 = DIRECTION ( 'NONE',  ( 0.0000000000000000000, 0.0000000000000000000, 1.000000000000000000 ) ) ;
#50 = CARTESIAN_POINT ( 'NONE',  ( -2.732915920968304900, 3.346856734952675600E-016, -1.437250587901797800 ) ) ;
#51 = CARTESIAN_POINT ( 'NONE',  ( -3.000000000000000000, -2.750000000000000000, 2.662749412098199800 ) ) ;
#52 = CIRCLE ( 'NONE', #350, 2.500000000000000000 ) ;
#53 = VECTOR ( 'NONE', #134, 1000.000000000000000 ) ;
#54 = LINE ( 'NONE', #79, #99 ) ;
#55 = ORIENTED_EDGE ( 'NONE', *, *, #327, .F. ) ;
#56 = ADVANCED_FACE ( 'NONE', ( #165, #164 ), #292, .T. ) ;
#57 = MANIFOLD_SOLID_BREP ( 'ÊäÈë1', #284 ) ;
#58 = VECTOR ( 'NONE', #49, 1000.000000000000000 ) ;
#59 = DIRECTION ( 'NONE',  ( -1.000000000000000000, 0.0000000000000000000, 0.0000000000000000000 ) ) ;
#60 = DIRECTION ( 'NONE',  ( 1.000000000000000000, 1.224646799147352000E-016, 0.0000000000000000000 ) ) ;
#61 = LINE ( 'NONE', #82, #39 ) ;
#62 = VECTOR ( 'NONE', #85, 1000.000000000000100 ) ;
#63 = VERTEX_POINT ( 'NONE', #288 ) ;
#64 = DIRECTION ( 'NONE',  ( -1.000000000000000000, 0.0000000000000000000, 0.0000000000000000000 ) ) ;
#65 = DIRECTION ( 'NONE',  ( -1.000000000000000000, 0.0000000000000000000, 0.0000000000000000000 ) ) ;
#66 = PLANE ( 'NONE',  #321 ) ;
#67 = CARTESIAN_POINT ( 'NONE',  ( -2.732915920968304900, 3.346856734952675600E-016, -0.8372505879017979600 ) ) ;
#68 = ORIENTED_EDGE ( 'NONE', *, *, #422, .T. ) ;
#69 = UNCERTAINTY_MEASURE_WITH_UNIT (LENGTH_MEASURE( 1.000000000000000100E-005 ), #40, 'distance_accuracy_value', 'NONE');
#70 =( NAMED_UNIT ( * ) SI_UNIT ( $, .STERADIAN. ) SOLID_ANGLE_UNIT ( ) );
#71 = DIRECTION ( 'NONE',  ( 1.000000000000000000, 0.0000000000000000000, 0.0000000000000000000 ) ) ;
#72 = LINE ( 'NONE', #272, #62 ) ;
#73 =( NAMED_UNIT ( * ) SI_UNIT ( $, .STERADIAN. ) SOLID_ANGLE_UNIT ( ) );
#74 = LINE ( 'NONE', #157, #347 ) ;
#75 =( NAMED_UNIT ( * ) PLANE_ANGLE_UNIT ( ) SI_UNIT ( $, .RADIAN. ) );
#76 = DIRECTION ( 'NONE',  ( 0.0000000000000000000, 0.0000000000000000000, 1.000000000000000000 ) ) ;
#77 = PRESENTATION_STYLE_ASSIGNMENT (( #197 ) ) ;
#78 = CARTESIAN_POINT ( 'NONE',  ( 2.732915920968304900, 0.0000000000000000000, -1.437250587901797800 ) ) ;
#79 = CARTESIAN_POINT ( 'NONE',  ( 3.000000000000000000, 4.750000000000000000, 0.6627494120982020400 ) ) ;
#80 = VECTOR ( 'NONE', #401, 1000.000000000000000 ) ;
#81 = LINE ( 'NONE', #50, #80 ) ;
#82 = CARTESIAN_POINT ( 'NONE',  ( 3.000000000000000000, 2.750000000000000000, 2.662749412098199800 ) ) ;
#83 = FACE_OUTER_BOUND ( 'NONE', #372, .T. ) ;
#84 = LINE ( 'NONE', #180, #36 ) ;
#85 = DIRECTION ( 'NONE',  ( 0.0000000000000000000, -0.7071067811865474600, -0.7071067811865474600 ) ) ;
#86 = DIRECTION ( 'NONE',  ( 0.0000000000000000000, -1.000000000000000000, 0.0000000000000000000 ) ) ;
#87 = ORIENTED_EDGE ( 'NONE', *, *, #333, .F. ) ;
#88 = ORIENTED_EDGE ( 'NONE', *, *, #343, .F. ) ;
#89 = DIRECTION ( 'NONE',  ( 0.0000000000000000000, 0.0000000000000000000, 1.000000000000000000 ) ) ;
#90 = ORIENTED_EDGE ( 'NONE', *, *, #357, .F. ) ;
#91 = CARTESIAN_POINT ( 'NONE',  ( 2.732915920968304900, 0.0000000000000000000, -1.437250587901797800 ) ) ;
#92 = ADVANCED_FACE ( 'NONE', ( #153 ), #127, .F. ) ;
#93 = DIRECTION ( 'NONE',  ( 0.0000000000000000000, -0.7071067811865474600, -0.7071067811865474600 ) ) ;
#94 = FILL_AREA_STYLE ('',( #358 ) ) ;
#95 = VECTOR ( 'NONE', #232, 1000.000000000000000 ) ;
#96 = CIRCLE ( 'NONE', #338, 2.732915920968304900 ) ;
#97 = CARTESIAN_POINT ( 'NONE',  ( 3.000000000000000000, -2.750000000000000000, 2.662749412098199800 ) ) ;
#98 = DIRECTION ( 'NONE',  ( 0.0000000000000000000, 0.0000000000000000000, -1.000000000000000000 ) ) ;
#99 = VECTOR ( 'NONE', #16, 1000.000000000000000 ) ;
#100 = FACE_OUTER_BOUND ( 'NONE', #187, .T. ) ;
#101 = CARTESIAN_POINT ( 'NONE',  ( -3.000000000000000000, 4.750000000000000000, -0.8372505879017979600 ) ) ;
#102 = APPLICATION_PROTOCOL_DEFINITION ( 'draft international standard', 'automotive_design', 1998, #136 ) ;
#103 = PRODUCT_CONTEXT ( 'NONE', #136, 'mechanical' ) ;
#104 = PRODUCT_DEFINITION_CONTEXT ( 'detailed design', #325, 'design' ) ;
#105 = FACE_BOUND ( 'NONE', #266, .T. ) ;
#106 = LINE ( 'NONE', #139, #95 ) ;
#107 = CARTESIAN_POINT ( 'NONE',  ( -3.000000000000000000, -4.750000000000000000, 0.6627494120982020400 ) ) ;
#108 = CARTESIAN_POINT ( 'NONE',  ( 3.000000000000000000, 4.750000000000000000, 0.6627494120982020400 ) ) ;
#109 = FACE_OUTER_BOUND ( 'NONE', #186, .T. ) ;
#110 = CARTESIAN_POINT ( 'NONE',  ( 0.0000000000000000000, 0.0000000000000000000, -1.437250587901797800 ) ) ;
#111 = CYLINDRICAL_SURFACE ( 'NONE', #241, 2.732915920968304900 ) ;
#112 = VERTEX_POINT ( 'NONE', #101 ) ;
#113 = PLANE ( 'NONE',  #337 ) ;
#114 = FACE_OUTER_BOUND ( 'NONE', #190, .T. ) ;
#115 = FACE_BOUND ( 'NONE', #182, .T. ) ;
#116 = ORIENTED_EDGE ( 'NONE', *, *, #412, .T. ) ;
#117 = ADVANCED_FACE ( 'NONE', ( #131 ), #258, .F. ) ;
#118 = DIRECTION ( 'NONE',  ( 0.0000000000000000000, -1.000000000000000000, 0.0000000000000000000 ) ) ;
#119 = CARTESIAN_POINT ( 'NONE',  ( -3.000000000000000000, 4.750000000000000000, 0.6627494120982020400 ) ) ;
#120 = CYLINDRICAL_SURFACE ( 'NONE', #279, 2.500000000000000000 ) ;
#121 = EDGE_LOOP ( 'NONE', ( #68, #216, #385, #178, #231, #260 ) ) ;
#122 = FACE_OUTER_BOUND ( 'NONE', #121, .T. ) ;
#123 = LINE ( 'NONE', #331, #58 ) ;
#124 = CARTESIAN_POINT ( 'NONE',  ( 0.0000000000000000000, 0.0000000000000000000, -0.8372505879017979600 ) ) ;
#125 = DIRECTION ( 'NONE',  ( 0.0000000000000000000, 0.0000000000000000000, -1.000000000000000000 ) ) ;
#126 = DIRECTION ( 'NONE',  ( 0.0000000000000000000, 0.0000000000000000000, -1.000000000000000000 ) ) ;
#127 = CYLINDRICAL_SURFACE ( 'NONE', #304, 2.500000000000000000 ) ;
#128 = CARTESIAN_POINT ( 'NONE',  ( 3.000000000000000000, -4.750000000000000000, 0.6627494120982020400 ) ) ;
#129 = FACE_OUTER_BOUND ( 'NONE', #415, .T. ) ;
#130 = FACE_OUTER_BOUND ( 'NONE', #261, .T. ) ;
#131 = FACE_OUTER_BOUND ( 'NONE', #255, .T. ) ;
#132 = DIRECTION ( 'NONE',  ( 0.0000000000000000000, 0.0000000000000000000, -1.000000000000000000 ) ) ;
#133 = SURFACE_STYLE_USAGE ( .BOTH. , #352 ) ;
#134 = DIRECTION ( 'NONE',  ( 0.0000000000000000000, 1.000000000000000000, 0.0000000000000000000 ) ) ;
#135 = DIRECTION ( 'NONE',  ( 0.0000000000000000000, 0.7071067811865475700, 0.7071067811865475700 ) ) ;
#136 = APPLICATION_CONTEXT ( 'automotive_design' ) ;
#137 = VECTOR ( 'NONE', #93, 1000.000000000000100 ) ;
#138 = APPLICATION_PROTOCOL_DEFINITION ( 'draft international standard', 'automotive_design', 1998, #325 ) ;
#139 = CARTESIAN_POINT ( 'NONE',  ( -2.500000000000000000, 0.0000000000000000000, 2.929024353308020200 ) ) ;
#140 = DIRECTION ( 'NONE',  ( 0.0000000000000000000, -0.7071067811865475700, -0.7071067811865475700 ) ) ;
#141 = DIRECTION ( 'NONE',  ( 0.0000000000000000000, 0.0000000000000000000, -1.000000000000000000 ) ) ;
#142 = PRODUCT_DEFINITION_SHAPE ( 'NONE', 'NONE',  #275 ) ;
#143 = PRESENTATION_STYLE_ASSIGNMENT (( #133 ) ) ;
#144 = ORIENTED_EDGE ( 'NONE', *, *, #393, .F. ) ;
#145 = VECTOR ( 'NONE', #65, 1000.000000000000000 ) ;
#146 = VERTEX_POINT ( 'NONE', #248 ) ;
#147 = ADVANCED_FACE ( 'NONE', ( #155 ), #120, .F. ) ;
#148 = EDGE_LOOP ( 'NONE', ( #161, #414, #223, #256 ) ) ;
#149 = CARTESIAN_POINT ( 'NONE',  ( 3.000000000000000000, -4.750000000000000000, -0.8372505879017979600 ) ) ;
#150 = SURFACE_STYLE_FILL_AREA ( #94 ) ;
#151 = DIRECTION ( 'NONE',  ( 0.0000000000000000000, -0.7071067811865474600, 0.7071067811865474600 ) ) ;
#152 = DIRECTION ( 'NONE',  ( -1.000000000000000000, 0.0000000000000000000, 0.0000000000000000000 ) ) ;
#153 = FACE_OUTER_BOUND ( 'NONE', #234, .T. ) ;
#154 = LINE ( 'NONE', #158, #53 ) ;
#155 = FACE_OUTER_BOUND ( 'NONE', #194, .T. ) ;
#156 = CARTESIAN_POINT ( 'NONE',  ( -3.000000000000000000, 4.750000000000000000, -0.8372505879017979600 ) ) ;
#157 = CARTESIAN_POINT ( 'NONE',  ( 3.000000000000000000, -4.750000000000000000, 0.6627494120982020400 ) ) ;
#158 = CARTESIAN_POINT ( 'NONE',  ( -3.000000000000000000, -4.750000000000000000, -0.8372505879017979600 ) ) ;
#159 = DIRECTION ( 'NONE',  ( 0.0000000000000000000, 0.0000000000000000000, -1.000000000000000000 ) ) ;
#160 = PLANE ( 'NONE',  #355 ) ;
#161 = ORIENTED_EDGE ( 'NONE', *, *, #342, .F. ) ;
#162 = ORIENTED_EDGE ( 'NONE', *, *, #368, .T. ) ;
#163 = CARTESIAN_POINT ( 'NONE',  ( -2.500000000000000000, 0.0000000000000000000, -1.437250587901797800 ) ) ;
#164 = FACE_BOUND ( 'NONE', #183, .T. ) ;
#165 = FACE_OUTER_BOUND ( 'NONE', #226, .T. ) ;
#166 = FACE_OUTER_BOUND ( 'NONE', #148, .T. ) ;
#167 = ORIENTED_EDGE ( 'NONE', *, *, #406, .F. ) ;
#168 = CARTESIAN_POINT ( 'NONE',  ( 2.500000000000000000, 3.061616997868383100E-016, -1.437250587901797800 ) ) ;
#169 = FILL_AREA_STYLE ('',( #363 ) ) ;
#170 = FACE_OUTER_BOUND ( 'NONE', #179, .T. ) ;
#171 = ORIENTED_EDGE ( 'NONE', *, *, #369, .F. ) ;
#172 = CARTESIAN_POINT ( 'NONE',  ( 3.000000000000000000, -4.750000000000000000, -0.8372505879017979600 ) ) ;
#173 = ORIENTED_EDGE ( 'NONE', *, *, #360, .F. ) ;
#174 = ORIENTED_EDGE ( 'NONE', *, *, #342, .T. ) ;
#175 = ORIENTED_EDGE ( 'NONE', *, *, #365, .F. ) ;
#176 = VERTEX_POINT ( 'NONE', #290 ) ;
#177 = ADVANCED_FACE ( 'NONE', ( #122 ), #185, .T. ) ;
#178 = ORIENTED_EDGE ( 'NONE', *, *, #364, .T. ) ;
#179 = EDGE_LOOP ( 'NONE', ( #237, #205, #390, #294 ) ) ;
#180 = CARTESIAN_POINT ( 'NONE',  ( 3.000000000000000000, -4.750000000000000000, -0.8372505879017979600 ) ) ;
#181 = ORIENTED_EDGE ( 'NONE', *, *, #417, .F. ) ;
#182 = EDGE_LOOP ( 'NONE', ( #367, #175 ) ) ;
#183 = EDGE_LOOP ( 'NONE', ( #55, #308 ) ) ;
#184 = DIRECTION ( 'NONE',  ( 0.0000000000000000000, 0.0000000000000000000, -1.000000000000000000 ) ) ;
#185 = PLANE ( 'NONE',  #276 ) ;
#186 = EDGE_LOOP ( 'NONE', ( #46, #210, #173, #419 ) ) ;
#187 = EDGE_LOOP ( 'NONE', ( #88, #239, #270, #340 ) ) ;
#188 = CARTESIAN_POINT ( 'NONE',  ( 3.000000000000000000, 4.750000000000000000, -0.8372505879017979600 ) ) ;
#189 = DIRECTION ( 'NONE',  ( 0.0000000000000000000, 0.0000000000000000000, -1.000000000000000000 ) ) ;
#190 = EDGE_LOOP ( 'NONE', ( #399, #228, #192, #244 ) ) ;
#191 = CARTESIAN_POINT ( 'NONE',  ( 3.000000000000000000, -4.750000000000000000, -0.8372505879017979600 ) ) ;
#192 = ORIENTED_EDGE ( 'NONE', *, *, #422, .F. ) ;
#193 = ORIENTED_EDGE ( 'NONE', *, *, #368, .F. ) ;
#194 = EDGE_LOOP ( 'NONE', ( #227, #376, #277, #87 ) ) ;
#195 = CARTESIAN_POINT ( 'NONE',  ( 3.000000000000000000, 4.750000000000000000, -0.8372505879017979600 ) ) ;
#196 = DIRECTION ( 'NONE',  ( 0.0000000000000000000, 0.0000000000000000000, -1.000000000000000000 ) ) ;
#197 = SURFACE_STYLE_USAGE ( .BOTH. , #396 ) ;
#198 = ORIENTED_EDGE ( 'NONE', *, *, #412, .F. ) ;
#199 = DIRECTION ( 'NONE',  ( 0.0000000000000000000, 0.0000000000000000000, 1.000000000000000000 ) ) ;
#200 = DIRECTION ( 'NONE',  ( 0.0000000000000000000, 0.7071067811865475700, -0.7071067811865475700 ) ) ;
#201 = ORIENTED_EDGE ( 'NONE', *, *, #361, .T. ) ;
#202 = VERTEX_POINT ( 'NONE', #67 ) ;
#203 = DIRECTION ( 'NONE',  ( 0.0000000000000000000, 0.0000000000000000000, -1.000000000000000000 ) ) ;
#204 = ORIENTED_EDGE ( 'NONE', *, *, #333, .T. ) ;
#205 = ORIENTED_EDGE ( 'NONE', *, *, #330, .F. ) ;
#206 = VECTOR ( 'NONE', #184, 1000.000000000000000 ) ;
#207 = ADVANCED_FACE ( 'NONE', ( #166 ), #111, .T. ) ;
#208 = DIRECTION ( 'NONE',  ( -0.0000000000000000000, -0.0000000000000000000, 1.000000000000000000 ) ) ;
#209 = VERTEX_POINT ( 'NONE', #195 ) ;
#210 = ORIENTED_EDGE ( 'NONE', *, *, #407, .F. ) ;
#211 = VERTEX_POINT ( 'NONE', #163 ) ;
#212 = DIRECTION ( 'NONE',  ( 0.0000000000000000000, -0.7071067811865474600, 0.7071067811865474600 ) ) ;
#213 = DIRECTION ( 'NONE',  ( -0.0000000000000000000, -0.0000000000000000000, 1.000000000000000000 ) ) ;
#214 = DIRECTION ( 'NONE',  ( 0.0000000000000000000, 0.0000000000000000000, 1.000000000000000000 ) ) ;
#215 = ADVANCED_FACE ( 'NONE', ( #109, #115 ), #250, .F. ) ;
#216 = ORIENTED_EDGE ( 'NONE', *, *, #360, .T. ) ;
#217 = CARTESIAN_POINT ( 'NONE',  ( -2.500000000000000000, 0.0000000000000000000, 2.662749412098199800 ) ) ;
#218 = LINE ( 'NONE', #351, #137 ) ;
#219 = ORIENTED_EDGE ( 'NONE', *, *, #353, .F. ) ;
#220 =( LENGTH_UNIT ( ) NAMED_UNIT ( * ) SI_UNIT ( .MILLI., .METRE. ) );
#221 = ORIENTED_EDGE ( 'NONE', *, *, #349, .F. ) ;
#222 = ORIENTED_EDGE ( 'NONE', *, *, #362, .F. ) ;
#223 = ORIENTED_EDGE ( 'NONE', *, *, #365, .T. ) ;
#224 = DIRECTION ( 'NONE',  ( 0.0000000000000000000, 0.7071067811865475700, -0.7071067811865475700 ) ) ;
#225 = CARTESIAN_POINT ( 'NONE',  ( 0.0000000000000000000, 0.0000000000000000000, 0.0000000000000000000 ) ) ;
#226 = EDGE_LOOP ( 'NONE', ( #341, #174 ) ) ;
#227 = ORIENTED_EDGE ( 'NONE', *, *, #357, .T. ) ;
#228 = ORIENTED_EDGE ( 'NONE', *, *, #359, .F. ) ;
#229 = VECTOR ( 'NONE', #386, 1000.000000000000000 ) ;
#230 =( NAMED_UNIT ( * ) PLANE_ANGLE_UNIT ( ) SI_UNIT ( $, .RADIAN. ) );
#231 = ORIENTED_EDGE ( 'NONE', *, *, #353, .T. ) ;
#232 = DIRECTION ( 'NONE',  ( 0.0000000000000000000, 0.0000000000000000000, -1.000000000000000000 ) ) ;
#233 = DIRECTION ( 'NONE',  ( -1.000000000000000000, 0.0000000000000000000, 0.0000000000000000000 ) ) ;
#234 = EDGE_LOOP ( 'NONE', ( #243, #162, #204, #398 ) ) ;
#235 = VERTEX_POINT ( 'NONE', #12 ) ;
#236 = VERTEX_POINT ( 'NONE', #168 ) ;
#237 = ORIENTED_EDGE ( 'NONE', *, *, #393, .T. ) ;
#238 = ADVANCED_BREP_SHAPE_REPRESENTATION ( 'M5 T-Slot Nut', ( #57, #281 ), #297 ) ;
#239 = ORIENTED_EDGE ( 'NONE', *, *, #391, .F. ) ;
#240 = CARTESIAN_POINT ( 'NONE',  ( -3.000000000000000000, 2.750000000000000000, 2.662749412098199800 ) ) ;
#241 = AXIS2_PLACEMENT_3D ( 'NONE', #420, #389, #41 ) ;
#242 = CARTESIAN_POINT ( 'NONE',  ( 2.500000000000000000, 3.061616997868383100E-016, 2.929024353308020200 ) ) ;
#243 = ORIENTED_EDGE ( 'NONE', *, *, #379, .F. ) ;
#244 = ORIENTED_EDGE ( 'NONE', *, *, #404, .T. ) ;
#245 = DIRECTION ( 'NONE',  ( 0.0000000000000000000, 0.0000000000000000000, -1.000000000000000000 ) ) ;
#246 = DIRECTION ( 'NONE',  ( 0.0000000000000000000, 0.0000000000000000000, -1.000000000000000000 ) ) ;
#247 = PLANE ( 'NONE',  #296 ) ;
#248 = CARTESIAN_POINT ( 'NONE',  ( 3.000000000000000000, -2.750000000000000000, 2.662749412098199800 ) ) ;
#249 = VERTEX_POINT ( 'NONE', #107 ) ;
#250 = PLANE ( 'NONE',  #382 ) ;
#251 = UNCERTAINTY_MEASURE_WITH_UNIT (LENGTH_MEASURE( 1.000000000000000100E-005 ), #6, 'distance_accuracy_value', 'NONE');
#252 = CARTESIAN_POINT ( 'NONE',  ( 3.000000000000000000, 0.0000000000000000000, 0.0000000000000000000 ) ) ;
#253 = ORIENTED_EDGE ( 'NONE', *, *, #362, .T. ) ;
#254 = VERTEX_POINT ( 'NONE', #11 ) ;
#255 = EDGE_LOOP ( 'NONE', ( #116, #374, #221, #405 ) ) ;
#256 = ORIENTED_EDGE ( 'NONE', *, *, #388, .F. ) ;
#257 =( NAMED_UNIT ( * ) PLANE_ANGLE_UNIT ( ) SI_UNIT ( $, .RADIAN. ) );
#258 = PLANE ( 'NONE',  #293 ) ;
#259 = SURFACE_STYLE_FILL_AREA ( #169 ) ;
#260 = ORIENTED_EDGE ( 'NONE', *, *, #349, .T. ) ;
#261 = EDGE_LOOP ( 'NONE', ( #317, #383, #219, #253 ) ) ;
#262 = VERTEX_POINT ( 'NONE', #10 ) ;
#263 = CARTESIAN_POINT ( 'NONE',  ( 0.0000000000000000000, 0.0000000000000000000, -1.437250587901797800 ) ) ;
#264 = DIRECTION ( 'NONE',  ( 0.0000000000000000000, 1.000000000000000000, 0.0000000000000000000 ) ) ;
#265 = VERTEX_POINT ( 'NONE', #78 ) ;
#266 = EDGE_LOOP ( 'NONE', ( #90, #193 ) ) ;
#267 = VERTEX_POINT ( 'NONE', #51 ) ;
#268 = ORIENTED_EDGE ( 'NONE', *, *, #364, .F. ) ;
#269 = ADVANCED_FACE ( 'NONE', ( #114 ), #160, .F. ) ;
#270 = ORIENTED_EDGE ( 'NONE', *, *, #388, .T. ) ;
#271 = PRODUCT_RELATED_PRODUCT_CATEGORY ( 'part', '', ( #373 ) ) ;
#272 = CARTESIAN_POINT ( 'NONE',  ( 3.000000000000000000, -2.750000000000000000, 2.662749412098199800 ) ) ;
#273 = PRODUCT_DEFINITION_FORMATION_WITH_SPECIFIED_SOURCE ( 'ÈÎºÎ', '', #373, .NOT_KNOWN. ) ;
#274 = DIRECTION ( 'NONE',  ( 0.0000000000000000000, 1.000000000000000000, 0.0000000000000000000 ) ) ;
#275 = PRODUCT_DEFINITION ( 'Î´Öª', '', #273, #104 ) ;
#276 = AXIS2_PLACEMENT_3D ( 'NONE', #252, #421, #189 ) ;
#277 = ORIENTED_EDGE ( 'NONE', *, *, #380, .T. ) ;
#278 = VERTEX_POINT ( 'NONE', #172 ) ;
#279 = AXIS2_PLACEMENT_3D ( 'NONE', #5, #159, #418 ) ;
#280 = CARTESIAN_POINT ( 'NONE',  ( 3.000000000000000000, -2.750000000000000000, 2.662749412098199800 ) ) ;
#281 = AXIS2_PLACEMENT_3D ( 'NONE', #225, #76, #301 ) ;
#282 = CARTESIAN_POINT ( 'NONE',  ( 3.000000000000000000, 4.750000000000000000, 0.6627494120982020400 ) ) ;
#283 =( GEOMETRIC_REPRESENTATION_CONTEXT ( 3 ) GLOBAL_UNCERTAINTY_ASSIGNED_CONTEXT ( ( #251 ) ) GLOBAL_UNIT_ASSIGNED_CONTEXT ( ( #6, #230, #42 ) ) REPRESENTATION_CONTEXT ( 'NONE', 'WORKASPACE' ) );
#284 = CLOSED_SHELL ( 'NONE', ( #207, #147, #215, #269, #19, #335, #310, #117, #177, #408, #92, #345, #56 ) ) ;
#285 = MECHANICAL_DESIGN_GEOMETRIC_PRESENTATION_REPRESENTATION (  '', ( #291 ), #283 ) ;
#286 = COLOUR_RGB ( '',0.8705882352941176600, 0.8705882352941176600, 0.8705882352941176600 ) ;
#287 = CARTESIAN_POINT ( 'NONE',  ( -3.000000000000000000, 0.0000000000000000000, 0.0000000000000000000 ) ) ;
#288 = CARTESIAN_POINT ( 'NONE',  ( -2.732915920968304900, 3.346856734952675600E-016, -1.437250587901797800 ) ) ;
#289 = PRESENTATION_LAYER_ASSIGNMENT (  '', '', ( #291 ) ) ;
#290 = CARTESIAN_POINT ( 'NONE',  ( -3.000000000000000000, -4.750000000000000000, -0.8372505879017979600 ) ) ;
#291 = STYLED_ITEM ( 'NONE', ( #77 ), #238 ) ;
#292 = PLANE ( 'NONE',  #314 ) ;
#293 = AXIS2_PLACEMENT_3D ( 'NONE', #97, #224, #135 ) ;
#294 = ORIENTED_EDGE ( 'NONE', *, *, #407, .T. ) ;
#295 = CARTESIAN_POINT ( 'NONE',  ( 3.000000000000000000, -4.750000000000000000, 0.6627494120982020400 ) ) ;
#296 = AXIS2_PLACEMENT_3D ( 'NONE', #287, #322, #132 ) ;
#297 =( GEOMETRIC_REPRESENTATION_CONTEXT ( 3 ) GLOBAL_UNCERTAINTY_ASSIGNED_CONTEXT ( ( #69 ) ) GLOBAL_UNIT_ASSIGNED_CONTEXT ( ( #40, #257, #73 ) ) REPRESENTATION_CONTEXT ( 'NONE', 'WORKASPACE' ) );
#298 = AXIS2_PLACEMENT_3D ( 'NONE', #29, #246, #64 ) ;
#299 = AXIS2_PLACEMENT_3D ( 'NONE', #318, #126, #344 ) ;
#300 = AXIS2_PLACEMENT_3D ( 'NONE', #28, #245, #60 ) ;
#301 = DIRECTION ( 'NONE',  ( 1.000000000000000000, 0.0000000000000000000, 0.0000000000000000000 ) ) ;
#302 = LINE ( 'NONE', #348, #206 ) ;
#303 = SHAPE_DEFINITION_REPRESENTATION ( #142, #238 ) ;
#304 = AXIS2_PLACEMENT_3D ( 'NONE', #356, #32, #35 ) ;
#305 = DIRECTION ( 'NONE',  ( 1.000000000000000000, 0.0000000000000000000, 0.0000000000000000000 ) ) ;
#306 = DIRECTION ( 'NONE',  ( 0.0000000000000000000, 0.0000000000000000000, -1.000000000000000000 ) ) ;
#307 = DIRECTION ( 'NONE',  ( 1.000000000000000000, 1.224646799147352000E-016, 0.0000000000000000000 ) ) ;
#308 = ORIENTED_EDGE ( 'NONE', *, *, #380, .F. ) ;
#309 = VECTOR ( 'NONE', #214, 1000.000000000000000 ) ;
#310 = ADVANCED_FACE ( 'NONE', ( #105, #130 ), #328, .F. ) ;
#311 =( GEOMETRIC_REPRESENTATION_CONTEXT ( 3 ) GLOBAL_UNCERTAINTY_ASSIGNED_CONTEXT ( ( #397 ) ) GLOBAL_UNIT_ASSIGNED_CONTEXT ( ( #220, #75, #70 ) ) REPRESENTATION_CONTEXT ( 'NONE', 'WORKASPACE' ) );
#312 = MECHANICAL_DESIGN_GEOMETRIC_PRESENTATION_REPRESENTATION (  '', ( #315 ), #311 ) ;
#313 = PRESENTATION_LAYER_ASSIGNMENT (  '', '', ( #315 ) ) ;
#314 = AXIS2_PLACEMENT_3D ( 'NONE', #323, #98, #2 ) ;
#315 = STYLED_ITEM ( 'NONE', ( #143 ), #57 ) ;
#316 = DIRECTION ( 'NONE',  ( -1.000000000000000000, 0.0000000000000000000, 0.0000000000000000000 ) ) ;
#317 = ORIENTED_EDGE ( 'NONE', *, *, #369, .T. ) ;
#318 = CARTESIAN_POINT ( 'NONE',  ( 0.0000000000000000000, 0.0000000000000000000, -0.8372505879017979600 ) ) ;
#319 = LINE ( 'NONE', #31, #145 ) ;
#320 = CARTESIAN_POINT ( 'NONE',  ( 2.732915920968304900, 0.0000000000000000000, -0.8372505879017979600 ) ) ;
#321 = AXIS2_PLACEMENT_3D ( 'NONE', #188, #354, #196 ) ;
#322 = DIRECTION ( 'NONE',  ( 1.000000000000000000, 0.0000000000000000000, 0.0000000000000000000 ) ) ;
#323 = CARTESIAN_POINT ( 'NONE',  ( 0.0000000000000000000, 0.0000000000000000000, -1.437250587901797800 ) ) ;
#324 = AXIS2_PLACEMENT_3D ( 'NONE', #413, #213, #27 ) ;
#325 = APPLICATION_CONTEXT ( 'automotive_design' ) ;
#326 = AXIS2_PLACEMENT_3D ( 'NONE', #263, #332, #305 ) ;
#327 = EDGE_CURVE ( 'NONE', #211, #236, #52, .T. ) ;
#328 = PLANE ( 'NONE',  #346 ) ;
#329 = EDGE_CURVE ( 'NONE', #209, #394, #123, .T. ) ;
#330 = EDGE_CURVE ( 'NONE', #394, #370, #54, .T. ) ;
#331 = CARTESIAN_POINT ( 'NONE',  ( 3.000000000000000000, 4.750000000000000000, -0.8372505879017979600 ) ) ;
#332 = DIRECTION ( 'NONE',  ( 0.0000000000000000000, 0.0000000000000000000, 1.000000000000000000 ) ) ;
#333 = EDGE_CURVE ( 'NONE', #402, #211, #106, .T. ) ;
#334 = AXIS2_PLACEMENT_3D ( 'NONE', #410, #208, #22 ) ;
#335 = ADVANCED_FACE ( 'NONE', ( #83 ), #113, .F. ) ;
#336 = AXIS2_PLACEMENT_3D ( 'NONE', #124, #339, #152 ) ;
#337 = AXIS2_PLACEMENT_3D ( 'NONE', #108, #140, #200 ) ;
#338 = AXIS2_PLACEMENT_3D ( 'NONE', #110, #141, #18 ) ;
#339 = DIRECTION ( 'NONE',  ( 0.0000000000000000000, 0.0000000000000000000, -1.000000000000000000 ) ) ;
#340 = ORIENTED_EDGE ( 'NONE', *, *, #387, .T. ) ;
#341 = ORIENTED_EDGE ( 'NONE', *, *, #391, .T. ) ;
#342 = EDGE_CURVE ( 'NONE', #63, #265, #96, .T. ) ;
#343 = EDGE_CURVE ( 'NONE', #63, #202, #81, .T. ) ;
#344 = DIRECTION ( 'NONE',  ( -1.000000000000000000, 0.0000000000000000000, 0.0000000000000000000 ) ) ;
#345 = ADVANCED_FACE ( 'NONE', ( #100 ), #44, .T. ) ;
#346 = AXIS2_PLACEMENT_3D ( 'NONE', #400, #203, #233 ) ;
#347 = VECTOR ( 'NONE', #392, 1000.000000000000000 ) ;
#348 = CARTESIAN_POINT ( 'NONE',  ( -3.000000000000000000, -4.750000000000000000, 0.6627494120982020400 ) ) ;
#349 = EDGE_CURVE ( 'NONE', #146, #48, #72, .T. ) ;
#350 = AXIS2_PLACEMENT_3D ( 'NONE', #371, #306, #307 ) ;
#351 = CARTESIAN_POINT ( 'NONE',  ( -3.000000000000000000, -2.750000000000000000, 2.662749412098199800 ) ) ;
#352 = SURFACE_SIDE_STYLE ('',( #150 ) ) ;
#353 = EDGE_CURVE ( 'NONE', #235, #146, #61, .T. ) ;
#354 = DIRECTION ( 'NONE',  ( 0.0000000000000000000, -1.000000000000000000, 0.0000000000000000000 ) ) ;
#355 = AXIS2_PLACEMENT_3D ( 'NONE', #47, #264, #199 ) ;
#356 = CARTESIAN_POINT ( 'NONE',  ( 0.0000000000000000000, 0.0000000000000000000, 2.929024353308020200 ) ) ;
#357 = EDGE_CURVE ( 'NONE', #402, #254, #43, .T. ) ;
#358 = FILL_AREA_STYLE_COLOUR ( '', #286 ) ;
#359 = EDGE_CURVE ( 'NONE', #278, #176, #84, .T. ) ;
#360 = EDGE_CURVE ( 'NONE', #278, #209, #38, .T. ) ;
#361 = EDGE_CURVE ( 'NONE', #370, #262, #34, .T. ) ;
#362 = EDGE_CURVE ( 'NONE', #235, #262, #30, .T. ) ;
#363 = FILL_AREA_STYLE_COLOUR ( '', #45 ) ;
#364 = EDGE_CURVE ( 'NONE', #394, #235, #37, .T. ) ;
#365 = EDGE_CURVE ( 'NONE', #202, #395, #23, .T. ) ;
#366 = ORIENTED_EDGE ( 'NONE', *, *, #330, .T. ) ;
#367 = ORIENTED_EDGE ( 'NONE', *, *, #387, .F. ) ;
#368 = EDGE_CURVE ( 'NONE', #254, #402, #25, .T. ) ;
#369 = EDGE_CURVE ( 'NONE', #262, #267, #20, .T. ) ;
#370 = VERTEX_POINT ( 'NONE', #381 ) ;
#371 = CARTESIAN_POINT ( 'NONE',  ( 0.0000000000000000000, 0.0000000000000000000, -1.437250587901797800 ) ) ;
#372 = EDGE_LOOP ( 'NONE', ( #201, #222, #268, #366 ) ) ;
#373 = PRODUCT ( 'M5 T-Slot Nut', 'M5 T-Slot Nut', '', ( #103 ) ) ;
#374 = ORIENTED_EDGE ( 'NONE', *, *, #404, .F. ) ;
#375 = CARTESIAN_POINT ( 'NONE',  ( 3.000000000000000000, 4.750000000000000000, 0.6627494120982020400 ) ) ;
#376 = ORIENTED_EDGE ( 'NONE', *, *, #379, .T. ) ;
#377 = EDGE_CURVE ( 'NONE', #146, #267, #15, .T. ) ;
#378 = CARTESIAN_POINT ( 'NONE',  ( 3.000000000000000000, 2.750000000000000000, 2.662749412098199800 ) ) ;
#379 = EDGE_CURVE ( 'NONE', #254, #236, #13, .T. ) ;
#380 = EDGE_CURVE ( 'NONE', #236, #211, #8, .T. ) ;
#381 = CARTESIAN_POINT ( 'NONE',  ( -3.000000000000000000, 4.750000000000000000, 0.6627494120982020400 ) ) ;
#382 = AXIS2_PLACEMENT_3D ( 'NONE', #191, #416, #71 ) ;
#383 = ORIENTED_EDGE ( 'NONE', *, *, #377, .F. ) ;
#384 = CIRCLE ( 'NONE', #298, 2.732915920968304900 ) ;
#385 = ORIENTED_EDGE ( 'NONE', *, *, #329, .T. ) ;
#386 = DIRECTION ( 'NONE',  ( -1.000000000000000000, 0.0000000000000000000, 0.0000000000000000000 ) ) ;
#387 = EDGE_CURVE ( 'NONE', #395, #202, #9, .T. ) ;
#388 = EDGE_CURVE ( 'NONE', #265, #395, #4, .T. ) ;
#389 = DIRECTION ( 'NONE',  ( 0.0000000000000000000, 0.0000000000000000000, 1.000000000000000000 ) ) ;
#390 = ORIENTED_EDGE ( 'NONE', *, *, #329, .F. ) ;
#391 = EDGE_CURVE ( 'NONE', #265, #63, #384, .T. ) ;
#392 = DIRECTION ( 'NONE',  ( 0.0000000000000000000, 0.0000000000000000000, -1.000000000000000000 ) ) ;
#393 = EDGE_CURVE ( 'NONE', #112, #370, #403, .T. ) ;
#394 = VERTEX_POINT ( 'NONE', #282 ) ;
#395 = VERTEX_POINT ( 'NONE', #320 ) ;
#396 = SURFACE_SIDE_STYLE ('',( #259 ) ) ;
#397 = UNCERTAINTY_MEASURE_WITH_UNIT (LENGTH_MEASURE( 1.000000000000000100E-005 ), #220, 'distance_accuracy_value', 'NONE');
#398 = ORIENTED_EDGE ( 'NONE', *, *, #327, .T. ) ;
#399 = ORIENTED_EDGE ( 'NONE', *, *, #406, .T. ) ;
#400 = CARTESIAN_POINT ( 'NONE',  ( 3.000000000000000000, 2.750000000000000000, 2.662749412098199800 ) ) ;
#401 = DIRECTION ( 'NONE',  ( 0.0000000000000000000, 0.0000000000000000000, 1.000000000000000000 ) ) ;
#402 = VERTEX_POINT ( 'NONE', #217 ) ;
#403 = LINE ( 'NONE', #156, #309 ) ;
#404 = EDGE_CURVE ( 'NONE', #48, #249, #3, .T. ) ;
#405 = ORIENTED_EDGE ( 'NONE', *, *, #377, .T. ) ;
#406 = EDGE_CURVE ( 'NONE', #249, #176, #302, .T. ) ;
#407 = EDGE_CURVE ( 'NONE', #209, #112, #319, .T. ) ;
#408 = ADVANCED_FACE ( 'NONE', ( #129 ), #247, .F. ) ;
#409 = ORIENTED_EDGE ( 'NONE', *, *, #361, .F. ) ;
#410 = CARTESIAN_POINT ( 'NONE',  ( 0.0000000000000000000, 0.0000000000000000000, 2.662749412098199800 ) ) ;
#411 = DIRECTION ( 'NONE',  ( -1.000000000000000000, 0.0000000000000000000, 0.0000000000000000000 ) ) ;
#412 = EDGE_CURVE ( 'NONE', #267, #249, #218, .T. ) ;
#413 = CARTESIAN_POINT ( 'NONE',  ( 0.0000000000000000000, 0.0000000000000000000, 2.662749412098199800 ) ) ;
#414 = ORIENTED_EDGE ( 'NONE', *, *, #343, .T. ) ;
#415 = EDGE_LOOP ( 'NONE', ( #167, #198, #171, #409, #144, #181 ) ) ;
#416 = DIRECTION ( 'NONE',  ( 0.0000000000000000000, 0.0000000000000000000, 1.000000000000000000 ) ) ;
#417 = EDGE_CURVE ( 'NONE', #176, #112, #154, .T. ) ;
#418 = DIRECTION ( 'NONE',  ( -1.000000000000000000, 0.0000000000000000000, 0.0000000000000000000 ) ) ;
#419 = ORIENTED_EDGE ( 'NONE', *, *, #359, .T. ) ;
#420 = CARTESIAN_POINT ( 'NONE',  ( 0.0000000000000000000, 0.0000000000000000000, -1.437250587901797800 ) ) ;
#421 = DIRECTION ( 'NONE',  ( 1.000000000000000000, 0.0000000000000000000, 0.0000000000000000000 ) ) ;
#422 = EDGE_CURVE ( 'NONE', #48, #278, #74, .T. ) ;
ENDSEC;
END-ISO-10303-21;
