ISO-10303-21;
HEADER;
FILE_DESCRIPTION (( 'STEP AP214' ),
    '1' );
FILE_NAME ('M5 Split Washer.step',
    '2018-06-21T12:59:06',
    ( 'User' ),
    ( 'china' ),
    'SwSTEP 2.0',
    'SolidWorks 2016',
    '' );
FILE_SCHEMA (( 'AUTOMOTIVE_DESIGN' ));
ENDSEC;

DATA;
#1 = CARTESIAN_POINT ( 'NONE',  ( 2.542144763777232100, -0.2000000000000000900, 1.000000000000000000 ) ) ;
#2 = DIRECTION ( 'NONE',  ( 0.0000000000000000000, 0.0000000000000000000, 1.000000000000000000 ) ) ;
#3 = DIRECTION ( 'NONE',  ( -0.0000000000000000000, -0.0000000000000000000, -1.000000000000000000 ) ) ;
#4 = APPLICATION_CONTEXT ( 'automotive_design' ) ;
#5 = APPLICATION_PROTOCOL_DEFINITION ( 'draft international standard', 'automotive_design', 1998, #115 ) ;
#6 = CARTESIAN_POINT ( 'NONE',  ( 0.0000000000000000000, 0.0000000000000000000, 0.0000000000000000000 ) ) ;
#7 = DIRECTION ( 'NONE',  ( -1.000000000000000000, -0.0000000000000000000, -0.0000000000000000000 ) ) ;
#8 = DIRECTION ( 'NONE',  ( 1.000000000000000000, 0.0000000000000000000, 0.0000000000000000000 ) ) ;
#9 = DIRECTION ( 'NONE',  ( -0.0000000000000000000, -0.0000000000000000000, -1.000000000000000000 ) ) ;
#10 = DIRECTION ( 'NONE',  ( -1.000000000000000000, 0.0000000000000000000, 0.0000000000000000000 ) ) ;
#11 = ADVANCED_FACE ( 'NONE', ( #101 ), #226, .T. ) ;
#12 = CARTESIAN_POINT ( 'NONE',  ( 3.494281041931230000, -0.2000000000000000900, 1.000000000000000000 ) ) ;
#13 = DIRECTION ( 'NONE',  ( 0.0000000000000000000, 0.0000000000000000000, 1.000000000000000000 ) ) ;
#14 = CARTESIAN_POINT ( 'NONE',  ( -2.549999999999999800, 0.0000000000000000000, 1.000000000000000000 ) ) ;
#15 = FILL_AREA_STYLE ('',( #128 ) ) ;
#16 = DIRECTION ( 'NONE',  ( -0.0000000000000000000, -0.0000000000000000000, -1.000000000000000000 ) ) ;
#17 = UNCERTAINTY_MEASURE_WITH_UNIT (LENGTH_MEASURE( 1.000000000000000100E-005 ), #248, 'distance_accuracy_value', 'NONE');
#18 = DIRECTION ( 'NONE',  ( 1.000000000000000000, 0.0000000000000000000, 0.0000000000000000000 ) ) ;
#19 = DIRECTION ( 'NONE',  ( 0.0000000000000000000, -0.0000000000000000000, 1.000000000000000000 ) ) ;
#20 = DIRECTION ( 'NONE',  ( 0.0000000000000000000, -0.0000000000000000000, -1.000000000000000000 ) ) ;
#21 = PLANE ( 'NONE',  #261 ) ;
#22 = ADVANCED_FACE ( 'NONE', ( #76 ), #100, .F. ) ;
#23 = UNCERTAINTY_MEASURE_WITH_UNIT (LENGTH_MEASURE( 1.000000000000000100E-005 ), #174, 'distance_accuracy_value', 'NONE');
#24 = PRESENTATION_STYLE_ASSIGNMENT (( #30 ) ) ;
#25 = COLOUR_RGB ( '',0.4901960784313725300, 0.4901960784313725300, 0.4901960784313725300 ) ;
#26 = CARTESIAN_POINT ( 'NONE',  ( -3.500000000000000000, 0.0000000000000000000, 0.0000000000000000000 ) ) ;
#27 = VERTEX_POINT ( 'NONE', #217 ) ;
#28 = DIRECTION ( 'NONE',  ( 1.000000000000000000, 0.0000000000000000000, -0.0000000000000000000 ) ) ;
#29 = DIRECTION ( 'NONE',  ( 0.0000000000000000000, 0.0000000000000000000, 1.000000000000000000 ) ) ;
#30 = SURFACE_STYLE_USAGE ( .BOTH. , #153 ) ;
#31 = CARTESIAN_POINT ( 'NONE',  ( 3.494281041931230000, -0.2000000000000000900, 0.0000000000000000000 ) ) ;
#32 = CARTESIAN_POINT ( 'NONE',  ( 2.542144763777232100, -0.2000000000000000900, 0.0000000000000000000 ) ) ;
#33 = DIRECTION ( 'NONE',  ( 0.0000000000000000000, 0.0000000000000000000, 1.000000000000000000 ) ) ;
#34 = SHAPE_DEFINITION_REPRESENTATION ( #220, #198 ) ;
#35 = SURFACE_STYLE_FILL_AREA ( #15 ) ;
#36 = CARTESIAN_POINT ( 'NONE',  ( 0.0000000000000000000, 0.0000000000000000000, 1.000000000000000000 ) ) ;
#37 = FACE_OUTER_BOUND ( 'NONE', #136, .T. ) ;
#38 = ORIENTED_EDGE ( 'NONE', *, *, #228, .F. ) ;
#39 = CIRCLE ( 'NONE', #268, 3.500000000000000000 ) ;
#40 = VECTOR ( 'NONE', #74, 1000.000000000000000 ) ;
#41 = CARTESIAN_POINT ( 'NONE',  ( -3.500000000000000000, 0.0000000000000000000, 1.000000000000000000 ) ) ;
#42 = LINE ( 'NONE', #243, #40 ) ;
#43 = CIRCLE ( 'NONE', #270, 2.549999999999999800 ) ;
#44 = DIRECTION ( 'NONE',  ( 0.0000000000000000000, 0.0000000000000000000, 1.000000000000000000 ) ) ;
#45 =( NAMED_UNIT ( * ) PLANE_ANGLE_UNIT ( ) SI_UNIT ( $, .RADIAN. ) );
#46 = VECTOR ( 'NONE', #48, 1000.000000000000000 ) ;
#47 = CIRCLE ( 'NONE', #273, 3.500000000000000000 ) ;
#48 = DIRECTION ( 'NONE',  ( -1.000000000000000000, -0.0000000000000000000, -0.0000000000000000000 ) ) ;
#49 = MANIFOLD_SOLID_BREP ( 'Í¹Ì¨-À­Éì1', #166 ) ;
#50 = ORIENTED_EDGE ( 'NONE', *, *, #229, .F. ) ;
#51 = VECTOR ( 'NONE', #131, 1000.000000000000000 ) ;
#52 = DIRECTION ( 'NONE',  ( -0.0000000000000000000, -0.0000000000000000000, -1.000000000000000000 ) ) ;
#53 = FILL_AREA_STYLE ('',( #182 ) ) ;
#54 = DIRECTION ( 'NONE',  ( -0.0000000000000000000, -0.0000000000000000000, -1.000000000000000000 ) ) ;
#55 = LINE ( 'NONE', #32, #46 ) ;
#56 = CIRCLE ( 'NONE', #271, 3.500000000000000000 ) ;
#57 = ADVANCED_FACE ( 'NONE', ( #249 ), #107, .T. ) ;
#58 = VECTOR ( 'NONE', #94, 1000.000000000000000 ) ;
#59 = VECTOR ( 'NONE', #7, 1000.000000000000000 ) ;
#60 = ORIENTED_EDGE ( 'NONE', *, *, #190, .T. ) ;
#61 = LINE ( 'NONE', #73, #51 ) ;
#62 = VECTOR ( 'NONE', #175, 1000.000000000000000 ) ;
#63 = LINE ( 'NONE', #177, #58 ) ;
#64 = VECTOR ( 'NONE', #116, 1000.000000000000000 ) ;
#65 = PRESENTATION_STYLE_ASSIGNMENT (( #79 ) ) ;
#66 = CARTESIAN_POINT ( 'NONE',  ( 2.542144763777232100, -0.2000000000000000900, 0.0000000000000000000 ) ) ;
#67 = DIRECTION ( 'NONE',  ( -0.0000000000000000000, -0.0000000000000000000, -1.000000000000000000 ) ) ;
#68 =( NAMED_UNIT ( * ) PLANE_ANGLE_UNIT ( ) SI_UNIT ( $, .RADIAN. ) );
#69 = LINE ( 'NONE', #155, #62 ) ;
#70 = FACE_OUTER_BOUND ( 'NONE', #218, .T. ) ;
#71 = ORIENTED_EDGE ( 'NONE', *, *, #229, .T. ) ;
#72 = CARTESIAN_POINT ( 'NONE',  ( 0.0000000000000000000, 0.0000000000000000000, 1.000000000000000000 ) ) ;
#73 = CARTESIAN_POINT ( 'NONE',  ( 2.542144763777232100, -0.2000000000000000900, 1.000000000000000000 ) ) ;
#74 = DIRECTION ( 'NONE',  ( -0.0000000000000000000, -0.0000000000000000000, -1.000000000000000000 ) ) ;
#75 = LINE ( 'NONE', #264, #64 ) ;
#76 = FACE_OUTER_BOUND ( 'NONE', #176, .T. ) ;
#77 = CARTESIAN_POINT ( 'NONE',  ( 2.542144763777232100, -0.2000000000000000900, 1.000000000000000000 ) ) ;
#78 = CIRCLE ( 'NONE', #275, 2.549999999999999800 ) ;
#79 = SURFACE_STYLE_USAGE ( .BOTH. , #219 ) ;
#80 = LINE ( 'NONE', #265, #59 ) ;
#81 = ADVANCED_FACE ( 'NONE', ( #111 ), #105, .F. ) ;
#82 = VECTOR ( 'NONE', #209, 1000.000000000000000 ) ;
#83 = ORIENTED_EDGE ( 'NONE', *, *, #223, .T. ) ;
#84 = ORIENTED_EDGE ( 'NONE', *, *, #211, .T. ) ;
#85 = CARTESIAN_POINT ( 'NONE',  ( 2.542144763777232100, 0.1999999999999999800, 0.0000000000000000000 ) ) ;
#86 = CIRCLE ( 'NONE', #276, 2.549999999999999800 ) ;
#87 = VECTOR ( 'NONE', #3, 1000.000000000000000 ) ;
#88 = CIRCLE ( 'NONE', #168, 2.549999999999999800 ) ;
#89 = CARTESIAN_POINT ( 'NONE',  ( 0.0000000000000000000, 0.0000000000000000000, 0.0000000000000000000 ) ) ;
#90 = CARTESIAN_POINT ( 'NONE',  ( -2.549999999999999800, 0.0000000000000000000, 0.0000000000000000000 ) ) ;
#91 = CARTESIAN_POINT ( 'NONE',  ( 3.494281041931230000, 0.1999999999999999800, 1.000000000000000000 ) ) ;
#92 = DIRECTION ( 'NONE',  ( 1.000000000000000000, 0.0000000000000000000, 0.0000000000000000000 ) ) ;
#93 = DIRECTION ( 'NONE',  ( 1.000000000000000000, 0.0000000000000000000, 0.0000000000000000000 ) ) ;
#94 = DIRECTION ( 'NONE',  ( 1.000000000000000000, 0.0000000000000000000, 0.0000000000000000000 ) ) ;
#95 = LINE ( 'NONE', #14, #87 ) ;
#96 = LINE ( 'NONE', #260, #104 ) ;
#97 = CARTESIAN_POINT ( 'NONE',  ( 0.0000000000000000000, 0.0000000000000000000, 1.000000000000000000 ) ) ;
#98 = CYLINDRICAL_SURFACE ( 'NONE', #214, 2.549999999999999800 ) ;
#99 = FACE_OUTER_BOUND ( 'NONE', #160, .T. ) ;
#100 = PLANE ( 'NONE',  #192 ) ;
#101 = FACE_OUTER_BOUND ( 'NONE', #148, .T. ) ;
#102 =( NAMED_UNIT ( * ) PLANE_ANGLE_UNIT ( ) SI_UNIT ( $, .RADIAN. ) );
#103 = ADVANCED_FACE ( 'NONE', ( #70 ), #21, .F. ) ;
#104 = VECTOR ( 'NONE', #113, 1000.000000000000000 ) ;
#105 = CYLINDRICAL_SURFACE ( 'NONE', #258, 2.549999999999999800 ) ;
#106 = FACE_OUTER_BOUND ( 'NONE', #167, .T. ) ;
#107 = CYLINDRICAL_SURFACE ( 'NONE', #140, 3.500000000000000000 ) ;
#108 = VERTEX_POINT ( 'NONE', #274 ) ;
#109 = CIRCLE ( 'NONE', #145, 3.500000000000000000 ) ;
#110 = VERTEX_POINT ( 'NONE', #26 ) ;
#111 = FACE_OUTER_BOUND ( 'NONE', #216, .T. ) ;
#112 = DIRECTION ( 'NONE',  ( -0.0000000000000000000, -0.0000000000000000000, -1.000000000000000000 ) ) ;
#113 = DIRECTION ( 'NONE',  ( -0.0000000000000000000, -0.0000000000000000000, -1.000000000000000000 ) ) ;
#114 = CARTESIAN_POINT ( 'NONE',  ( -2.549999999999999800, 0.0000000000000000000, 1.000000000000000000 ) ) ;
#115 = APPLICATION_CONTEXT ( 'automotive_design' ) ;
#116 = DIRECTION ( 'NONE',  ( -0.0000000000000000000, -0.0000000000000000000, -1.000000000000000000 ) ) ;
#117 = DIRECTION ( 'NONE',  ( 0.0000000000000000000, 0.0000000000000000000, 1.000000000000000000 ) ) ;
#118 = ORIENTED_EDGE ( 'NONE', *, *, #221, .T. ) ;
#119 = ORIENTED_EDGE ( 'NONE', *, *, #236, .T. ) ;
#120 = ORIENTED_EDGE ( 'NONE', *, *, #238, .F. ) ;
#121 = PRODUCT_DEFINITION_CONTEXT ( 'detailed design', #115, 'design' ) ;
#122 = PRODUCT ( 'M5 Split Washer', 'M5 Split Washer', '', ( #263 ) ) ;
#123 = VERTEX_POINT ( 'NONE', #90 ) ;
#124 = PLANE ( 'NONE',  #165 ) ;
#125 = CARTESIAN_POINT ( 'NONE',  ( 0.0000000000000000000, 0.0000000000000000000, 0.0000000000000000000 ) ) ;
#126 = VERTEX_POINT ( 'NONE', #66 ) ;
#127 = CARTESIAN_POINT ( 'NONE',  ( 2.542144763777232100, 0.1999999999999999800, 1.000000000000000000 ) ) ;
#128 = FILL_AREA_STYLE_COLOUR ( '', #25 ) ;
#129 = CARTESIAN_POINT ( 'NONE',  ( 0.0000000000000000000, 0.0000000000000000000, 0.0000000000000000000 ) ) ;
#130 = DIRECTION ( 'NONE',  ( -0.0000000000000000000, -0.0000000000000000000, -1.000000000000000000 ) ) ;
#131 = DIRECTION ( 'NONE',  ( -0.0000000000000000000, -0.0000000000000000000, -1.000000000000000000 ) ) ;
#132 = CARTESIAN_POINT ( 'NONE',  ( 0.0000000000000000000, 0.0000000000000000000, 0.0000000000000000000 ) ) ;
#133 = ORIENTED_EDGE ( 'NONE', *, *, #203, .T. ) ;
#134 = ORIENTED_EDGE ( 'NONE', *, *, #225, .T. ) ;
#135 = DIRECTION ( 'NONE',  ( 0.0000000000000000000, -1.000000000000000000, 0.0000000000000000000 ) ) ;
#136 = EDGE_LOOP ( 'NONE', ( #120, #187, #207, #143, #150, #38 ) ) ;
#137 = ORIENTED_EDGE ( 'NONE', *, *, #223, .F. ) ;
#138 = CARTESIAN_POINT ( 'NONE',  ( 0.0000000000000000000, 0.0000000000000000000, 1.000000000000000000 ) ) ;
#139 = ORIENTED_EDGE ( 'NONE', *, *, #203, .F. ) ;
#140 = AXIS2_PLACEMENT_3D ( 'NONE', #138, #52, #10 ) ;
#141 = ORIENTED_EDGE ( 'NONE', *, *, #186, .F. ) ;
#142 = ORIENTED_EDGE ( 'NONE', *, *, #221, .F. ) ;
#143 = ORIENTED_EDGE ( 'NONE', *, *, #200, .F. ) ;
#144 = VERTEX_POINT ( 'NONE', #41 ) ;
#145 = AXIS2_PLACEMENT_3D ( 'NONE', #152, #29, #173 ) ;
#146 = UNCERTAINTY_MEASURE_WITH_UNIT (LENGTH_MEASURE( 1.000000000000000100E-005 ), #208, 'distance_accuracy_value', 'NONE');
#147 = EDGE_LOOP ( 'NONE', ( #141, #170, #71, #250 ) ) ;
#148 = EDGE_LOOP ( 'NONE', ( #181, #199, #246, #139 ) ) ;
#149 = CARTESIAN_POINT ( 'NONE',  ( 0.0000000000000000000, 0.0000000000000000000, 1.000000000000000000 ) ) ;
#150 = ORIENTED_EDGE ( 'NONE', *, *, #224, .F. ) ;
#151 = DIRECTION ( 'NONE',  ( 1.000000000000000000, 0.0000000000000000000, 0.0000000000000000000 ) ) ;
#152 = CARTESIAN_POINT ( 'NONE',  ( 0.0000000000000000000, 0.0000000000000000000, 1.000000000000000000 ) ) ;
#153 = SURFACE_SIDE_STYLE ('',( #35 ) ) ;
#154 = DIRECTION ( 'NONE',  ( 1.000000000000000000, 0.0000000000000000000, 0.0000000000000000000 ) ) ;
#155 = CARTESIAN_POINT ( 'NONE',  ( 2.542144763777232100, 0.1999999999999999800, 0.0000000000000000000 ) ) ;
#156 = VERTEX_POINT ( 'NONE', #85 ) ;
#157 = ORIENTED_EDGE ( 'NONE', *, *, #197, .F. ) ;
#158 = CARTESIAN_POINT ( 'NONE',  ( 0.0000000000000000000, 0.0000000000000000000, 0.0000000000000000000 ) ) ;
#159 = LINE ( 'NONE', #127, #82 ) ;
#160 = EDGE_LOOP ( 'NONE', ( #205, #157, #83, #222 ) ) ;
#161 = ORIENTED_EDGE ( 'NONE', *, *, #191, .T. ) ;
#162 = DIRECTION ( 'NONE',  ( -1.000000000000000000, 0.0000000000000000000, 0.0000000000000000000 ) ) ;
#163 = ADVANCED_FACE ( 'NONE', ( #99 ), #98, .F. ) ;
#164 = ORIENTED_EDGE ( 'NONE', *, *, #190, .F. ) ;
#165 = AXIS2_PLACEMENT_3D ( 'NONE', #149, #44, #206 ) ;
#166 = CLOSED_SHELL ( 'NONE', ( #81, #11, #57, #22, #163, #103, #185, #272 ) ) ;
#167 = EDGE_LOOP ( 'NONE', ( #134, #196, #118, #251, #119, #195 ) ) ;
#168 = AXIS2_PLACEMENT_3D ( 'NONE', #129, #16, #154 ) ;
#169 = VERTEX_POINT ( 'NONE', #12 ) ;
#170 = ORIENTED_EDGE ( 'NONE', *, *, #225, .F. ) ;
#171 = MECHANICAL_DESIGN_GEOMETRIC_PRESENTATION_REPRESENTATION (  '', ( #184 ), #245 ) ;
#172 = PRESENTATION_LAYER_ASSIGNMENT (  '', '', ( #184 ) ) ;
#173 = DIRECTION ( 'NONE',  ( 1.000000000000000000, 0.0000000000000000000, 0.0000000000000000000 ) ) ;
#174 =( LENGTH_UNIT ( ) NAMED_UNIT ( * ) SI_UNIT ( .MILLI., .METRE. ) );
#175 = DIRECTION ( 'NONE',  ( 1.000000000000000000, 0.0000000000000000000, 0.0000000000000000000 ) ) ;
#176 = EDGE_LOOP ( 'NONE', ( #201, #137, #142, #133 ) ) ;
#177 = CARTESIAN_POINT ( 'NONE',  ( 2.542144763777232100, 0.1999999999999999800, 1.000000000000000000 ) ) ;
#178 = AXIS2_PLACEMENT_3D ( 'NONE', #97, #9, #267 ) ;
#179 = DIRECTION ( 'NONE',  ( 1.000000000000000000, 0.0000000000000000000, 0.0000000000000000000 ) ) ;
#180 = DIRECTION ( 'NONE',  ( 0.0000000000000000000, 1.000000000000000000, 0.0000000000000000000 ) ) ;
#181 = ORIENTED_EDGE ( 'NONE', *, *, #188, .F. ) ;
#182 = FILL_AREA_STYLE_COLOUR ( '', #232 ) ;
#183 = VERTEX_POINT ( 'NONE', #1 ) ;
#184 = STYLED_ITEM ( 'NONE', ( #65 ), #49 ) ;
#185 = ADVANCED_FACE ( 'NONE', ( #106 ), #124, .T. ) ;
#186 = EDGE_CURVE ( 'NONE', #144, #110, #96, .T. ) ;
#187 = ORIENTED_EDGE ( 'NONE', *, *, #211, .F. ) ;
#188 = EDGE_CURVE ( 'NONE', #144, #169, #109, .T. ) ;
#189 = EDGE_CURVE ( 'NONE', #194, #123, #95, .T. ) ;
#190 = EDGE_CURVE ( 'NONE', #108, #156, #159, .T. ) ;
#191 = EDGE_CURVE ( 'NONE', #123, #156, #88, .T. ) ;
#192 = AXIS2_PLACEMENT_3D ( 'NONE', #77, #135, #20 ) ;
#193 = VERTEX_POINT ( 'NONE', #91 ) ;
#194 = VERTEX_POINT ( 'NONE', #114 ) ;
#195 = ORIENTED_EDGE ( 'NONE', *, *, #215, .T. ) ;
#196 = ORIENTED_EDGE ( 'NONE', *, *, #188, .T. ) ;
#197 = EDGE_CURVE ( 'NONE', #183, #194, #86, .T. ) ;
#198 = ADVANCED_BREP_SHAPE_REPRESENTATION ( 'M5 Split Washer', ( #49, #241 ), #257 ) ;
#199 = ORIENTED_EDGE ( 'NONE', *, *, #186, .T. ) ;
#200 = EDGE_CURVE ( 'NONE', #126, #123, #78, .T. ) ;
#201 = ORIENTED_EDGE ( 'NONE', *, *, #224, .T. ) ;
#202 = DIRECTION ( 'NONE',  ( -1.000000000000000000, 0.0000000000000000000, 0.0000000000000000000 ) ) ;
#203 = EDGE_CURVE ( 'NONE', #169, #212, #75, .T. ) ;
#204 = CARTESIAN_POINT ( 'NONE',  ( 0.0000000000000000000, 0.0000000000000000000, 1.000000000000000000 ) ) ;
#205 = ORIENTED_EDGE ( 'NONE', *, *, #189, .F. ) ;
#206 = DIRECTION ( 'NONE',  ( 1.000000000000000000, 0.0000000000000000000, -0.0000000000000000000 ) ) ;
#207 = ORIENTED_EDGE ( 'NONE', *, *, #191, .F. ) ;
#208 =( LENGTH_UNIT ( ) NAMED_UNIT ( * ) SI_UNIT ( .MILLI., .METRE. ) );
#209 = DIRECTION ( 'NONE',  ( -0.0000000000000000000, -0.0000000000000000000, -1.000000000000000000 ) ) ;
#210 =( NAMED_UNIT ( * ) SI_UNIT ( $, .STERADIAN. ) SOLID_ANGLE_UNIT ( ) );
#211 = EDGE_CURVE ( 'NONE', #156, #27, #69, .T. ) ;
#212 = VERTEX_POINT ( 'NONE', #31 ) ;
#213 = ORIENTED_EDGE ( 'NONE', *, *, #215, .F. ) ;
#214 = AXIS2_PLACEMENT_3D ( 'NONE', #231, #112, #202 ) ;
#215 = EDGE_CURVE ( 'NONE', #108, #193, #63, .T. ) ;
#216 = EDGE_LOOP ( 'NONE', ( #227, #242, #161, #164 ) ) ;
#217 = CARTESIAN_POINT ( 'NONE',  ( 3.494281041931230000, 0.1999999999999999800, 0.0000000000000000000 ) ) ;
#218 = EDGE_LOOP ( 'NONE', ( #84, #50, #213, #60 ) ) ;
#219 = SURFACE_SIDE_STYLE ('',( #255 ) ) ;
#220 = PRODUCT_DEFINITION_SHAPE ( 'NONE', 'NONE',  #235 ) ;
#221 = EDGE_CURVE ( 'NONE', #169, #183, #80, .T. ) ;
#222 = ORIENTED_EDGE ( 'NONE', *, *, #200, .T. ) ;
#223 = EDGE_CURVE ( 'NONE', #183, #126, #61, .T. ) ;
#224 = EDGE_CURVE ( 'NONE', #212, #126, #55, .T. ) ;
#225 = EDGE_CURVE ( 'NONE', #193, #144, #47, .T. ) ;
#226 = CYLINDRICAL_SURFACE ( 'NONE', #178, 3.500000000000000000 ) ;
#227 = ORIENTED_EDGE ( 'NONE', *, *, #236, .F. ) ;
#228 = EDGE_CURVE ( 'NONE', #110, #212, #56, .T. ) ;
#229 = EDGE_CURVE ( 'NONE', #193, #27, #42, .T. ) ;
#230 = PRODUCT_RELATED_PRODUCT_CATEGORY ( 'part', '', ( #122 ) ) ;
#231 = CARTESIAN_POINT ( 'NONE',  ( 0.0000000000000000000, 0.0000000000000000000, 1.000000000000000000 ) ) ;
#232 = COLOUR_RGB ( '',0.4901960784313725300, 0.4901960784313725300, 0.4901960784313725300 ) ;
#233 = PRODUCT_DEFINITION_FORMATION_WITH_SPECIFIED_SOURCE ( 'ÈÎºÎ', '', #122, .NOT_KNOWN. ) ;
#234 = DIRECTION ( 'NONE',  ( 1.000000000000000000, 0.0000000000000000000, 0.0000000000000000000 ) ) ;
#235 = PRODUCT_DEFINITION ( 'Î´Öª', '', #233, #121 ) ;
#236 = EDGE_CURVE ( 'NONE', #194, #108, #43, .T. ) ;
#237 =( NAMED_UNIT ( * ) SI_UNIT ( $, .STERADIAN. ) SOLID_ANGLE_UNIT ( ) );
#238 = EDGE_CURVE ( 'NONE', #27, #110, #39, .T. ) ;
#239 = DIRECTION ( 'NONE',  ( 0.0000000000000000000, 0.0000000000000000000, 1.000000000000000000 ) ) ;
#240 = DIRECTION ( 'NONE',  ( -0.0000000000000000000, -0.0000000000000000000, -1.000000000000000000 ) ) ;
#241 = AXIS2_PLACEMENT_3D ( 'NONE', #132, #239, #92 ) ;
#242 = ORIENTED_EDGE ( 'NONE', *, *, #189, .T. ) ;
#243 = CARTESIAN_POINT ( 'NONE',  ( 3.494281041931230000, 0.1999999999999999800, 1.000000000000000000 ) ) ;
#244 =( GEOMETRIC_REPRESENTATION_CONTEXT ( 3 ) GLOBAL_UNCERTAINTY_ASSIGNED_CONTEXT ( ( #23 ) ) GLOBAL_UNIT_ASSIGNED_CONTEXT ( ( #174, #45, #210 ) ) REPRESENTATION_CONTEXT ( 'NONE', 'WORKASPACE' ) );
#245 =( GEOMETRIC_REPRESENTATION_CONTEXT ( 3 ) GLOBAL_UNCERTAINTY_ASSIGNED_CONTEXT ( ( #17 ) ) GLOBAL_UNIT_ASSIGNED_CONTEXT ( ( #248, #102, #269 ) ) REPRESENTATION_CONTEXT ( 'NONE', 'WORKASPACE' ) );
#246 = ORIENTED_EDGE ( 'NONE', *, *, #228, .T. ) ;
#247 = CARTESIAN_POINT ( 'NONE',  ( 2.542144763777232100, 0.1999999999999999800, 1.000000000000000000 ) ) ;
#248 =( LENGTH_UNIT ( ) NAMED_UNIT ( * ) SI_UNIT ( .MILLI., .METRE. ) );
#249 = FACE_OUTER_BOUND ( 'NONE', #147, .T. ) ;
#250 = ORIENTED_EDGE ( 'NONE', *, *, #238, .T. ) ;
#251 = ORIENTED_EDGE ( 'NONE', *, *, #197, .T. ) ;
#252 = MECHANICAL_DESIGN_GEOMETRIC_PRESENTATION_REPRESENTATION (  '', ( #254 ), #244 ) ;
#253 = PRESENTATION_LAYER_ASSIGNMENT (  '', '', ( #254 ) ) ;
#254 = STYLED_ITEM ( 'NONE', ( #24 ), #198 ) ;
#255 = SURFACE_STYLE_FILL_AREA ( #53 ) ;
#256 = AXIS2_PLACEMENT_3D ( 'NONE', #89, #2, #28 ) ;
#257 =( GEOMETRIC_REPRESENTATION_CONTEXT ( 3 ) GLOBAL_UNCERTAINTY_ASSIGNED_CONTEXT ( ( #146 ) ) GLOBAL_UNIT_ASSIGNED_CONTEXT ( ( #208, #68, #237 ) ) REPRESENTATION_CONTEXT ( 'NONE', 'WORKASPACE' ) );
#258 = AXIS2_PLACEMENT_3D ( 'NONE', #36, #54, #162 ) ;
#259 = PLANE ( 'NONE',  #256 ) ;
#260 = CARTESIAN_POINT ( 'NONE',  ( -3.500000000000000000, 0.0000000000000000000, 1.000000000000000000 ) ) ;
#261 = AXIS2_PLACEMENT_3D ( 'NONE', #247, #180, #19 ) ;
#262 = APPLICATION_PROTOCOL_DEFINITION ( 'draft international standard', 'automotive_design', 1998, #4 ) ;
#263 = PRODUCT_CONTEXT ( 'NONE', #4, 'mechanical' ) ;
#264 = CARTESIAN_POINT ( 'NONE',  ( 3.494281041931230000, -0.2000000000000000900, 1.000000000000000000 ) ) ;
#265 = CARTESIAN_POINT ( 'NONE',  ( 2.542144763777232100, -0.2000000000000000900, 1.000000000000000000 ) ) ;
#266 = CARTESIAN_POINT ( 'NONE',  ( 0.0000000000000000000, 0.0000000000000000000, 1.000000000000000000 ) ) ;
#267 = DIRECTION ( 'NONE',  ( -1.000000000000000000, 0.0000000000000000000, 0.0000000000000000000 ) ) ;
#268 = AXIS2_PLACEMENT_3D ( 'NONE', #125, #13, #151 ) ;
#269 =( NAMED_UNIT ( * ) SI_UNIT ( $, .STERADIAN. ) SOLID_ANGLE_UNIT ( ) );
#270 = AXIS2_PLACEMENT_3D ( 'NONE', #204, #67, #234 ) ;
#271 = AXIS2_PLACEMENT_3D ( 'NONE', #158, #33, #179 ) ;
#272 = ADVANCED_FACE ( 'NONE', ( #37 ), #259, .F. ) ;
#273 = AXIS2_PLACEMENT_3D ( 'NONE', #266, #117, #8 ) ;
#274 = CARTESIAN_POINT ( 'NONE',  ( 2.542144763777232100, 0.1999999999999999800, 1.000000000000000000 ) ) ;
#275 = AXIS2_PLACEMENT_3D ( 'NONE', #6, #130, #18 ) ;
#276 = AXIS2_PLACEMENT_3D ( 'NONE', #72, #240, #93 ) ;
ENDSEC;
END-ISO-10303-21;
