ISO-10303-21;
HEADER;
FILE_DESCRIPTION (( 'STEP AP214' ),
    '1' );
FILE_NAME ('M4 T-Slot Nut.step',
    '2018-06-21T12:58:51',
    ( 'User' ),
    ( 'china' ),
    'SwSTEP 2.0',
    'SolidWorks 2016',
    '' );
FILE_SCHEMA (( 'AUTOMOTIVE_DESIGN' ));
ENDSEC;

DATA;
#1 = CARTESIAN_POINT ( 'NONE',  ( 3.000000000000000000, -2.750000000000000000, 2.662749412098199800 ) ) ;
#2 = EDGE_LOOP ( 'NONE', ( #179, #374, #193, #319 ) ) ;
#3 = CARTESIAN_POINT ( 'NONE',  ( -3.000000000000000000, 2.750000000000000000, 2.662749412098199800 ) ) ;
#4 = DIRECTION ( 'NONE',  ( 0.0000000000000000000, -1.000000000000000000, 0.0000000000000000000 ) ) ;
#5 = CYLINDRICAL_SURFACE ( 'NONE', #273, 2.575319372849285100 ) ;
#6 = CIRCLE ( 'NONE', #275, 2.575319372849285100 ) ;
#7 = CIRCLE ( 'NONE', #276, 2.575319372849285100 ) ;
#8 = ADVANCED_FACE ( 'NONE', ( #99 ), #44, .F. ) ;
#9 = LINE ( 'NONE', #192, #336 ) ;
#10 = VECTOR ( 'NONE', #59, 1000.000000000000000 ) ;
#11 = FACE_OUTER_BOUND ( 'NONE', #243, .T. ) ;
#12 = LINE ( 'NONE', #17, #10 ) ;
#13 = ADVANCED_FACE ( 'NONE', ( #274 ), #110, .T. ) ;
#14 = VECTOR ( 'NONE', #4, 1000.000000000000000 ) ;
#15 = LINE ( 'NONE', #175, #14 ) ;
#16 = CARTESIAN_POINT ( 'NONE',  ( 0.0000000000000000000, 0.0000000000000000000, -1.437250587901797800 ) ) ;
#17 = CARTESIAN_POINT ( 'NONE',  ( 2.575319372849285100, 0.0000000000000000000, -1.437250587901797800 ) ) ;
#18 = VECTOR ( 'NONE', #213, 1000.000000000000000 ) ;
#19 = LINE ( 'NONE', #186, #18 ) ;
#20 = CIRCLE ( 'NONE', #284, 2.000000000000000000 ) ;
#21 = FACE_OUTER_BOUND ( 'NONE', #295, .T. ) ;
#22 = CARTESIAN_POINT ( 'NONE',  ( 3.000000000000000000, 2.750000000000000000, 2.662749412098199800 ) ) ;
#23 = CARTESIAN_POINT ( 'NONE',  ( 0.0000000000000000000, 0.0000000000000000000, 2.662749412098199800 ) ) ;
#24 = FILL_AREA_STYLE ('',( #285 ) ) ;
#25 = DIRECTION ( 'NONE',  ( 0.0000000000000000000, -0.7071067811865474600, -0.7071067811865474600 ) ) ;
#26 = VECTOR ( 'NONE', #402, 1000.000000000000000 ) ;
#27 = LINE ( 'NONE', #236, #26 ) ;
#28 = DIRECTION ( 'NONE',  ( -1.000000000000000000, 0.0000000000000000000, 0.0000000000000000000 ) ) ;
#29 = LINE ( 'NONE', #381, #34 ) ;
#30 = FILL_AREA_STYLE_COLOUR ( '', #80 ) ;
#31 = DIRECTION ( 'NONE',  ( 0.0000000000000000000, 0.7071067811865475700, 0.7071067811865475700 ) ) ;
#32 = VECTOR ( 'NONE', #174, 1000.000000000000100 ) ;
#33 = CIRCLE ( 'NONE', #305, 2.575319372849285100 ) ;
#34 = VECTOR ( 'NONE', #202, 1000.000000000000000 ) ;
#35 = PLANE ( 'NONE',  #306 ) ;
#36 = CYLINDRICAL_SURFACE ( 'NONE', #300, 2.000000000000000000 ) ;
#37 = CARTESIAN_POINT ( 'NONE',  ( 3.000000000000000000, -2.750000000000000000, 2.662749412098199800 ) ) ;
#38 = LINE ( 'NONE', #133, #42 ) ;
#39 = LINE ( 'NONE', #261, #32 ) ;
#40 = LINE ( 'NONE', #415, #318 ) ;
#41 = CIRCLE ( 'NONE', #304, 2.000000000000000000 ) ;
#42 = VECTOR ( 'NONE', #201, 1000.000000000000000 ) ;
#43 = VECTOR ( 'NONE', #348, 1000.000000000000100 ) ;
#44 = PLANE ( 'NONE',  #346 ) ;
#45 = CIRCLE ( 'NONE', #313, 2.575319372849285100 ) ;
#46 = ADVANCED_FACE ( 'NONE', ( #88, #86 ), #205, .F. ) ;
#47 = LINE ( 'NONE', #1, #43 ) ;
#48 = CARTESIAN_POINT ( 'NONE',  ( 3.000000000000000000, 4.750000000000000000, -0.8372505879017979600 ) ) ;
#49 = ADVANCED_FACE ( 'NONE', ( #87, #82 ), #112, .F. ) ;
#50 = VECTOR ( 'NONE', #296, 1000.000000000000000 ) ;
#51 = VECTOR ( 'NONE', #73, 1000.000000000000000 ) ;
#52 = LINE ( 'NONE', #411, #234 ) ;
#53 = VECTOR ( 'NONE', #229, 1000.000000000000000 ) ;
#54 = LINE ( 'NONE', #347, #53 ) ;
#55 = DIRECTION ( 'NONE',  ( 1.000000000000000000, 1.224646799147352000E-016, 0.0000000000000000000 ) ) ;
#56 = FACE_OUTER_BOUND ( 'NONE', #139, .T. ) ;
#57 = LINE ( 'NONE', #169, #64 ) ;
#58 = LINE ( 'NONE', #132, #51 ) ;
#59 = DIRECTION ( 'NONE',  ( 0.0000000000000000000, 0.0000000000000000000, 1.000000000000000000 ) ) ;
#60 = PLANE ( 'NONE',  #267 ) ;
#61 = CARTESIAN_POINT ( 'NONE',  ( -3.000000000000000000, -2.750000000000000000, 2.662749412098199800 ) ) ;
#62 = FACE_BOUND ( 'NONE', #334, .T. ) ;
#63 = DIRECTION ( 'NONE',  ( -1.000000000000000000, 0.0000000000000000000, 0.0000000000000000000 ) ) ;
#64 = VECTOR ( 'NONE', #400, 1000.000000000000000 ) ;
#65 = FACE_OUTER_BOUND ( 'NONE', #2, .T. ) ;
#66 = LINE ( 'NONE', #200, #50 ) ;
#67 = SURFACE_STYLE_USAGE ( .BOTH. , #250 ) ;
#68 = CARTESIAN_POINT ( 'NONE',  ( 2.000000000000000000, 2.449293598294706400E-016, 2.929024353313990100 ) ) ;
#69 = SURFACE_SIDE_STYLE ('',( #94 ) ) ;
#70 = FACE_OUTER_BOUND ( 'NONE', #152, .T. ) ;
#71 = FACE_OUTER_BOUND ( 'NONE', #247, .T. ) ;
#72 = FACE_OUTER_BOUND ( 'NONE', #145, .T. ) ;
#73 = DIRECTION ( 'NONE',  ( -1.000000000000000000, 0.0000000000000000000, 0.0000000000000000000 ) ) ;
#74 = DIRECTION ( 'NONE',  ( 0.0000000000000000000, 0.0000000000000000000, -1.000000000000000000 ) ) ;
#75 = FACE_OUTER_BOUND ( 'NONE', #158, .T. ) ;
#76 = CARTESIAN_POINT ( 'NONE',  ( 0.0000000000000000000, 0.0000000000000000000, -1.437250587901797800 ) ) ;
#77 = CARTESIAN_POINT ( 'NONE',  ( 3.000000000000000000, -4.750000000000000000, -0.8372505879017979600 ) ) ;
#78 = CYLINDRICAL_SURFACE ( 'NONE', #255, 2.575319372849285100 ) ;
#79 = EDGE_CURVE ( 'NONE', #100, #147, #81, .T. ) ;
#80 = COLOUR_RGB ( '',0.4901960784313725300, 0.4901960784313725300, 0.4901960784313725300 ) ;
#81 = LINE ( 'NONE', #396, #93 ) ;
#82 = FACE_OUTER_BOUND ( 'NONE', #140, .T. ) ;
#83 = DIRECTION ( 'NONE',  ( 0.0000000000000000000, 0.0000000000000000000, 1.000000000000000000 ) ) ;
#84 = CARTESIAN_POINT ( 'NONE',  ( 0.0000000000000000000, 0.0000000000000000000, -0.8372505879017979600 ) ) ;
#85 = PRESENTATION_STYLE_ASSIGNMENT (( #294 ) ) ;
#86 = FACE_OUTER_BOUND ( 'NONE', #418, .T. ) ;
#87 = FACE_BOUND ( 'NONE', #211, .T. ) ;
#88 = FACE_BOUND ( 'NONE', #159, .T. ) ;
#89 = CARTESIAN_POINT ( 'NONE',  ( 0.0000000000000000000, 0.0000000000000000000, 0.0000000000000000000 ) ) ;
#90 = DIRECTION ( 'NONE',  ( 0.0000000000000000000, 0.0000000000000000000, 1.000000000000000000 ) ) ;
#91 =( NAMED_UNIT ( * ) PLANE_ANGLE_UNIT ( ) SI_UNIT ( $, .RADIAN. ) );
#92 = VECTOR ( 'NONE', #25, 1000.000000000000100 ) ;
#93 = VECTOR ( 'NONE', #194, 1000.000000000000000 ) ;
#94 = SURFACE_STYLE_FILL_AREA ( #253 ) ;
#95 =( LENGTH_UNIT ( ) NAMED_UNIT ( * ) SI_UNIT ( .MILLI., .METRE. ) );
#96 = DIRECTION ( 'NONE',  ( 0.0000000000000000000, 1.000000000000000000, 0.0000000000000000000 ) ) ;
#97 = DIRECTION ( 'NONE',  ( -1.000000000000000000, 0.0000000000000000000, 0.0000000000000000000 ) ) ;
#98 = ORIENTED_EDGE ( 'NONE', *, *, #242, .T. ) ;
#99 = FACE_OUTER_BOUND ( 'NONE', #117, .T. ) ;
#100 = VERTEX_POINT ( 'NONE', #420 ) ;
#101 = ORIENTED_EDGE ( 'NONE', *, *, #228, .T. ) ;
#102 = DIRECTION ( 'NONE',  ( 0.0000000000000000000, 0.0000000000000000000, -1.000000000000000000 ) ) ;
#103 = DIRECTION ( 'NONE',  ( 1.000000000000000000, 1.224646799147352000E-016, 0.0000000000000000000 ) ) ;
#104 = ORIENTED_EDGE ( 'NONE', *, *, #237, .T. ) ;
#105 = ORIENTED_EDGE ( 'NONE', *, *, #311, .T. ) ;
#106 = VERTEX_POINT ( 'NONE', #165 ) ;
#107 = DIRECTION ( 'NONE',  ( -1.000000000000000000, 0.0000000000000000000, 0.0000000000000000000 ) ) ;
#108 = ORIENTED_EDGE ( 'NONE', *, *, #293, .F. ) ;
#109 = ORIENTED_EDGE ( 'NONE', *, *, #309, .T. ) ;
#110 = PLANE ( 'NONE',  #342 ) ;
#111 = DIRECTION ( 'NONE',  ( 0.0000000000000000000, 0.0000000000000000000, -1.000000000000000000 ) ) ;
#112 = PLANE ( 'NONE',  #331 ) ;
#113 = ORIENTED_EDGE ( 'NONE', *, *, #277, .T. ) ;
#114 = SHAPE_DEFINITION_REPRESENTATION ( #260, #404 ) ;
#115 = DIRECTION ( 'NONE',  ( 1.000000000000000000, 0.0000000000000000000, 0.0000000000000000000 ) ) ;
#116 = CARTESIAN_POINT ( 'NONE',  ( 0.0000000000000000000, 0.0000000000000000000, -1.437250587901797800 ) ) ;
#117 = EDGE_LOOP ( 'NONE', ( #101, #299, #171, #113 ) ) ;
#118 = ORIENTED_EDGE ( 'NONE', *, *, #341, .F. ) ;
#119 = DIRECTION ( 'NONE',  ( 1.000000000000000000, 0.0000000000000000000, 0.0000000000000000000 ) ) ;
#120 = DIRECTION ( 'NONE',  ( 1.000000000000000000, 0.0000000000000000000, 0.0000000000000000000 ) ) ;
#121 =( LENGTH_UNIT ( ) NAMED_UNIT ( * ) SI_UNIT ( .MILLI., .METRE. ) );
#122 = CARTESIAN_POINT ( 'NONE',  ( -3.000000000000000000, 4.750000000000000000, 0.6627494120982020400 ) ) ;
#123 = CYLINDRICAL_SURFACE ( 'NONE', #272, 2.000000000000000000 ) ;
#124 = ORIENTED_EDGE ( 'NONE', *, *, #308, .F. ) ;
#125 = CARTESIAN_POINT ( 'NONE',  ( 0.0000000000000000000, 0.0000000000000000000, 2.662749412098199800 ) ) ;
#126 = ORIENTED_EDGE ( 'NONE', *, *, #293, .T. ) ;
#127 = MANIFOLD_SOLID_BREP ( 'ÊäÈë1', #291 ) ;
#128 =( NAMED_UNIT ( * ) SI_UNIT ( $, .STERADIAN. ) SOLID_ANGLE_UNIT ( ) );
#129 = ORIENTED_EDGE ( 'NONE', *, *, #383, .T. ) ;
#130 = ORIENTED_EDGE ( 'NONE', *, *, #183, .T. ) ;
#131 = PLANE ( 'NONE',  #314 ) ;
#132 = CARTESIAN_POINT ( 'NONE',  ( 3.000000000000000000, 4.750000000000000000, 0.6627494120982020400 ) ) ;
#133 = CARTESIAN_POINT ( 'NONE',  ( 3.000000000000000000, 4.750000000000000000, -0.8372505879017979600 ) ) ;
#134 = VERTEX_POINT ( 'NONE', #375 ) ;
#135 = ORIENTED_EDGE ( 'NONE', *, *, #360, .F. ) ;
#136 = VECTOR ( 'NONE', #90, 1000.000000000000000 ) ;
#137 = ORIENTED_EDGE ( 'NONE', *, *, #297, .T. ) ;
#138 = ORIENTED_EDGE ( 'NONE', *, *, #297, .F. ) ;
#139 = EDGE_LOOP ( 'NONE', ( #129, #303, #137, #199 ) ) ;
#140 = EDGE_LOOP ( 'NONE', ( #206, #264, #405, #173 ) ) ;
#141 = VERTEX_POINT ( 'NONE', #208 ) ;
#142 = DIRECTION ( 'NONE',  ( 0.0000000000000000000, 0.0000000000000000000, 1.000000000000000000 ) ) ;
#143 = ADVANCED_FACE ( 'NONE', ( #70 ), #421, .F. ) ;
#144 = ADVANCED_FACE ( 'NONE', ( #72 ), #167, .F. ) ;
#145 = EDGE_LOOP ( 'NONE', ( #235, #157, #209, #410 ) ) ;
#146 = ORIENTED_EDGE ( 'NONE', *, *, #380, .T. ) ;
#147 = VERTEX_POINT ( 'NONE', #254 ) ;
#148 = LINE ( 'NONE', #219, #136 ) ;
#149 = ORIENTED_EDGE ( 'NONE', *, *, #383, .F. ) ;
#150 = ORIENTED_EDGE ( 'NONE', *, *, #360, .T. ) ;
#151 = ORIENTED_EDGE ( 'NONE', *, *, #288, .F. ) ;
#152 = EDGE_LOOP ( 'NONE', ( #146, #263, #281, #407 ) ) ;
#153 = DIRECTION ( 'NONE',  ( 1.000000000000000000, 1.224646799147352000E-016, 0.0000000000000000000 ) ) ;
#154 = CARTESIAN_POINT ( 'NONE',  ( 2.575319372849285100, 3.153856626742043300E-016, -1.437250587901797800 ) ) ;
#155 = CARTESIAN_POINT ( 'NONE',  ( -2.000000000000000000, 0.0000000000000000000, 2.929024353313990100 ) ) ;
#156 = DIRECTION ( 'NONE',  ( 0.0000000000000000000, 0.0000000000000000000, -1.000000000000000000 ) ) ;
#157 = ORIENTED_EDGE ( 'NONE', *, *, #79, .F. ) ;
#158 = EDGE_LOOP ( 'NONE', ( #398, #290, #124, #180, #241, #198 ) ) ;
#159 = EDGE_LOOP ( 'NONE', ( #149, #135 ) ) ;
#160 = LINE ( 'NONE', #337, #210 ) ;
#161 =( NAMED_UNIT ( * ) SI_UNIT ( $, .STERADIAN. ) SOLID_ANGLE_UNIT ( ) );
#162 = DIRECTION ( 'NONE',  ( -1.000000000000000000, 0.0000000000000000000, 0.0000000000000000000 ) ) ;
#163 = DIRECTION ( 'NONE',  ( 1.000000000000000000, 0.0000000000000000000, 0.0000000000000000000 ) ) ;
#164 = DIRECTION ( 'NONE',  ( -1.000000000000000000, 0.0000000000000000000, 0.0000000000000000000 ) ) ;
#165 = CARTESIAN_POINT ( 'NONE',  ( -2.575319372849285100, 3.153856626742046200E-016, -1.437250587901797800 ) ) ;
#166 = VERTEX_POINT ( 'NONE', #377 ) ;
#167 = PLANE ( 'NONE',  #321 ) ;
#168 = CARTESIAN_POINT ( 'NONE',  ( 3.000000000000000000, 4.750000000000000000, 0.6627494120982020400 ) ) ;
#169 = CARTESIAN_POINT ( 'NONE',  ( -2.575319372849285100, 3.153856626742046200E-016, -1.437250587901797800 ) ) ;
#170 = ORIENTED_EDGE ( 'NONE', *, *, #292, .T. ) ;
#171 = ORIENTED_EDGE ( 'NONE', *, *, #367, .F. ) ;
#172 = CARTESIAN_POINT ( 'NONE',  ( 0.0000000000000000000, 0.0000000000000000000, 2.929024353313990100 ) ) ;
#173 = ORIENTED_EDGE ( 'NONE', *, *, #79, .T. ) ;
#174 = DIRECTION ( 'NONE',  ( 0.0000000000000000000, -0.7071067811865474600, 0.7071067811865474600 ) ) ;
#175 = CARTESIAN_POINT ( 'NONE',  ( -3.000000000000000000, 2.750000000000000000, 2.662749412098199800 ) ) ;
#176 = EDGE_LOOP ( 'NONE', ( #108, #130, #231, #365 ) ) ;
#177 = PRODUCT ( 'M4 T-Slot Nut', 'M4 T-Slot Nut', '', ( #394 ) ) ;
#178 = ADVANCED_FACE ( 'NONE', ( #65 ), #131, .F. ) ;
#179 = ORIENTED_EDGE ( 'NONE', *, *, #279, .T. ) ;
#180 = ORIENTED_EDGE ( 'NONE', *, *, #279, .F. ) ;
#181 = ADVANCED_FACE ( 'NONE', ( #71, #62 ), #35, .T. ) ;
#182 = LINE ( 'NONE', #68, #376 ) ;
#183 = EDGE_CURVE ( 'NONE', #106, #307, #57, .T. ) ;
#184 = VERTEX_POINT ( 'NONE', #378 ) ;
#185 = VECTOR ( 'NONE', #156, 1000.000000000000000 ) ;
#186 = CARTESIAN_POINT ( 'NONE',  ( 3.000000000000000000, -4.750000000000000000, -0.8372505879017979600 ) ) ;
#187 = EDGE_CURVE ( 'NONE', #147, #282, #54, .T. ) ;
#188 = DIRECTION ( 'NONE',  ( -0.0000000000000000000, -0.0000000000000000000, -1.000000000000000000 ) ) ;
#189 = CARTESIAN_POINT ( 'NONE',  ( 0.0000000000000000000, 0.0000000000000000000, -1.437250587901797800 ) ) ;
#190 = APPLICATION_PROTOCOL_DEFINITION ( 'draft international standard', 'automotive_design', 1998, #222 ) ;
#191 = APPLICATION_CONTEXT ( 'automotive_design' ) ;
#192 = CARTESIAN_POINT ( 'NONE',  ( 3.000000000000000000, -4.750000000000000000, 0.6627494120982020400 ) ) ;
#193 = ORIENTED_EDGE ( 'NONE', *, *, #370, .F. ) ;
#194 = DIRECTION ( 'NONE',  ( -1.000000000000000000, 0.0000000000000000000, 0.0000000000000000000 ) ) ;
#195 = CARTESIAN_POINT ( 'NONE',  ( 3.000000000000000000, -2.750000000000000000, 2.662749412098199800 ) ) ;
#196 = PRODUCT_DEFINITION_CONTEXT ( 'detailed design', #191, 'design' ) ;
#197 = DIRECTION ( 'NONE',  ( 0.0000000000000000000, 0.0000000000000000000, -1.000000000000000000 ) ) ;
#198 = ORIENTED_EDGE ( 'NONE', *, *, #187, .F. ) ;
#199 = ORIENTED_EDGE ( 'NONE', *, *, #353, .F. ) ;
#200 = CARTESIAN_POINT ( 'NONE',  ( -3.000000000000000000, 4.750000000000000000, -0.8372505879017979600 ) ) ;
#201 = DIRECTION ( 'NONE',  ( -1.000000000000000000, 0.0000000000000000000, 0.0000000000000000000 ) ) ;
#202 = DIRECTION ( 'NONE',  ( 0.0000000000000000000, -1.000000000000000000, 0.0000000000000000000 ) ) ;
#203 = ORIENTED_EDGE ( 'NONE', *, *, #292, .F. ) ;
#204 = UNCERTAINTY_MEASURE_WITH_UNIT (LENGTH_MEASURE( 1.000000000000000100E-005 ), #95, 'distance_accuracy_value', 'NONE');
#205 = PLANE ( 'NONE',  #340 ) ;
#206 = ORIENTED_EDGE ( 'NONE', *, *, #187, .T. ) ;
#207 = ORIENTED_EDGE ( 'NONE', *, *, #353, .T. ) ;
#208 = CARTESIAN_POINT ( 'NONE',  ( 2.000000000000000000, 2.449293598294706400E-016, -1.437250587901797800 ) ) ;
#209 = ORIENTED_EDGE ( 'NONE', *, *, #395, .F. ) ;
#210 = VECTOR ( 'NONE', #369, 1000.000000000000100 ) ;
#211 = EDGE_LOOP ( 'NONE', ( #118, #401 ) ) ;
#212 = PRODUCT_RELATED_PRODUCT_CATEGORY ( 'part', '', ( #177 ) ) ;
#213 = DIRECTION ( 'NONE',  ( 0.0000000000000000000, 1.000000000000000000, 0.0000000000000000000 ) ) ;
#214 = UNCERTAINTY_MEASURE_WITH_UNIT (LENGTH_MEASURE( 1.000000000000000100E-005 ), #121, 'distance_accuracy_value', 'NONE');
#215 = PRODUCT_DEFINITION_FORMATION_WITH_SPECIFIED_SOURCE ( 'ÈÎºÎ', '', #177, .NOT_KNOWN. ) ;
#216 = CARTESIAN_POINT ( 'NONE',  ( 3.000000000000000000, 4.750000000000000000, -0.8372505879017979600 ) ) ;
#217 = PRODUCT_DEFINITION ( 'Î´Öª', '', #215, #196 ) ;
#218 = DIRECTION ( 'NONE',  ( 1.000000000000000000, 0.0000000000000000000, 0.0000000000000000000 ) ) ;
#219 = CARTESIAN_POINT ( 'NONE',  ( 3.000000000000000000, 4.750000000000000000, -0.8372505879017979600 ) ) ;
#220 = AXIS2_PLACEMENT_3D ( 'NONE', #89, #372, #163 ) ;
#221 = VERTEX_POINT ( 'NONE', #257 ) ;
#222 = APPLICATION_CONTEXT ( 'automotive_design' ) ;
#223 = CIRCLE ( 'NONE', #268, 2.000000000000000000 ) ;
#224 = DIRECTION ( 'NONE',  ( 0.0000000000000000000, 0.7071067811865475700, -0.7071067811865475700 ) ) ;
#225 =( GEOMETRIC_REPRESENTATION_CONTEXT ( 3 ) GLOBAL_UNCERTAINTY_ASSIGNED_CONTEXT ( ( #354 ) ) GLOBAL_UNIT_ASSIGNED_CONTEXT ( ( #287, #91, #338 ) ) REPRESENTATION_CONTEXT ( 'NONE', 'WORKASPACE' ) );
#226 = MECHANICAL_DESIGN_GEOMETRIC_PRESENTATION_REPRESENTATION (  '', ( #249 ), #225 ) ;
#227 = DIRECTION ( 'NONE',  ( 0.0000000000000000000, 0.7071067811865475700, -0.7071067811865475700 ) ) ;
#228 = EDGE_CURVE ( 'NONE', #282, #382, #66, .T. ) ;
#229 = DIRECTION ( 'NONE',  ( 0.0000000000000000000, 1.000000000000000000, 0.0000000000000000000 ) ) ;
#230 = DIRECTION ( 'NONE',  ( -1.000000000000000000, 0.0000000000000000000, 0.0000000000000000000 ) ) ;
#231 = ORIENTED_EDGE ( 'NONE', *, *, #349, .T. ) ;
#232 = ORIENTED_EDGE ( 'NONE', *, *, #386, .F. ) ;
#233 = EDGE_CURVE ( 'NONE', #221, #382, #58, .T. ) ;
#234 = VECTOR ( 'NONE', #246, 1000.000000000000000 ) ;
#235 = ORIENTED_EDGE ( 'NONE', *, *, #350, .T. ) ;
#236 = CARTESIAN_POINT ( 'NONE',  ( 3.000000000000000000, -2.750000000000000000, 2.662749412098199800 ) ) ;
#237 = EDGE_CURVE ( 'NONE', #256, #387, #47, .T. ) ;
#238 = PRESENTATION_LAYER_ASSIGNMENT (  '', '', ( #249 ) ) ;
#239 = ORIENTED_EDGE ( 'NONE', *, *, #395, .T. ) ;
#240 = CARTESIAN_POINT ( 'NONE',  ( 3.000000000000000000, 2.750000000000000000, 2.662749412098199800 ) ) ;
#241 = ORIENTED_EDGE ( 'NONE', *, *, #228, .F. ) ;
#242 = EDGE_CURVE ( 'NONE', #325, #106, #45, .T. ) ;
#243 = EDGE_LOOP ( 'NONE', ( #232, #150, #207, #271 ) ) ;
#244 = ORIENTED_EDGE ( 'NONE', *, *, #183, .F. ) ;
#245 = DIRECTION ( 'NONE',  ( 0.0000000000000000000, 0.0000000000000000000, -1.000000000000000000 ) ) ;
#246 = DIRECTION ( 'NONE',  ( 0.0000000000000000000, 0.0000000000000000000, -1.000000000000000000 ) ) ;
#247 = EDGE_LOOP ( 'NONE', ( #98, #126 ) ) ;
#248 = DIRECTION ( 'NONE',  ( -0.0000000000000000000, -0.0000000000000000000, 1.000000000000000000 ) ) ;
#249 = STYLED_ITEM ( 'NONE', ( #322 ), #404 ) ;
#250 = SURFACE_SIDE_STYLE ('',( #403 ) ) ;
#251 = VERTEX_POINT ( 'NONE', #3 ) ;
#252 = ORIENTED_EDGE ( 'NONE', *, *, #379, .T. ) ;
#253 = FILL_AREA_STYLE ('',( #30 ) ) ;
#254 = CARTESIAN_POINT ( 'NONE',  ( -3.000000000000000000, -4.750000000000000000, -0.8372505879017979600 ) ) ;
#255 = AXIS2_PLACEMENT_3D ( 'NONE', #189, #414, #218 ) ;
#256 = VERTEX_POINT ( 'NONE', #37 ) ;
#257 = CARTESIAN_POINT ( 'NONE',  ( 3.000000000000000000, 4.750000000000000000, 0.6627494120982020400 ) ) ;
#258 =( GEOMETRIC_REPRESENTATION_CONTEXT ( 3 ) GLOBAL_UNCERTAINTY_ASSIGNED_CONTEXT ( ( #214 ) ) GLOBAL_UNIT_ASSIGNED_CONTEXT ( ( #121, #368, #161 ) ) REPRESENTATION_CONTEXT ( 'NONE', 'WORKASPACE' ) );
#259 = CARTESIAN_POINT ( 'NONE',  ( 0.0000000000000000000, 0.0000000000000000000, -1.437250587901797800 ) ) ;
#260 = PRODUCT_DEFINITION_SHAPE ( 'NONE', 'NONE',  #217 ) ;
#261 = CARTESIAN_POINT ( 'NONE',  ( -3.000000000000000000, 4.750000000000000000, 0.6627494120982020400 ) ) ;
#262 = CIRCLE ( 'NONE', #266, 2.000000000000000000 ) ;
#263 = ORIENTED_EDGE ( 'NONE', *, *, #392, .F. ) ;
#264 = ORIENTED_EDGE ( 'NONE', *, *, #277, .F. ) ;
#265 = LINE ( 'NONE', #339, #185 ) ;
#266 = AXIS2_PLACEMENT_3D ( 'NONE', #125, #373, #164 ) ;
#267 = AXIS2_PLACEMENT_3D ( 'NONE', #363, #120, #366 ) ;
#268 = AXIS2_PLACEMENT_3D ( 'NONE', #23, #248, #63 ) ;
#269 = ORIENTED_EDGE ( 'NONE', *, *, #367, .T. ) ;
#270 = ADVANCED_FACE ( 'NONE', ( #56 ), #36, .F. ) ;
#271 = ORIENTED_EDGE ( 'NONE', *, *, #278, .T. ) ;
#272 = AXIS2_PLACEMENT_3D ( 'NONE', #327, #362, #280 ) ;
#273 = AXIS2_PLACEMENT_3D ( 'NONE', #324, #83, #389 ) ;
#274 = FACE_OUTER_BOUND ( 'NONE', #385, .T. ) ;
#275 = AXIS2_PLACEMENT_3D ( 'NONE', #391, #188, #412 ) ;
#276 = AXIS2_PLACEMENT_3D ( 'NONE', #84, #330, #119 ) ;
#277 = EDGE_CURVE ( 'NONE', #352, #282, #38, .T. ) ;
#278 = EDGE_CURVE ( 'NONE', #335, #141, #41, .T. ) ;
#279 = EDGE_CURVE ( 'NONE', #382, #251, #39, .T. ) ;
#280 = DIRECTION ( 'NONE',  ( -1.000000000000000000, 0.0000000000000000000, 0.0000000000000000000 ) ) ;
#281 = ORIENTED_EDGE ( 'NONE', *, *, #237, .F. ) ;
#282 = VERTEX_POINT ( 'NONE', #351 ) ;
#283 = DIRECTION ( 'NONE',  ( 0.0000000000000000000, 0.0000000000000000000, -1.000000000000000000 ) ) ;
#284 = AXIS2_PLACEMENT_3D ( 'NONE', #116, #361, #153 ) ;
#285 = FILL_AREA_STYLE_COLOUR ( '', #359 ) ;
#286 = DIRECTION ( 'NONE',  ( 0.0000000000000000000, 0.0000000000000000000, -1.000000000000000000 ) ) ;
#287 =( LENGTH_UNIT ( ) NAMED_UNIT ( * ) SI_UNIT ( .MILLI., .METRE. ) );
#288 = EDGE_CURVE ( 'NONE', #256, #409, #27, .T. ) ;
#289 = CARTESIAN_POINT ( 'NONE',  ( 3.000000000000000000, -4.750000000000000000, 0.6627494120982020400 ) ) ;
#290 = ORIENTED_EDGE ( 'NONE', *, *, #380, .F. ) ;
#291 = CLOSED_SHELL ( 'NONE', ( #406, #270, #144, #49, #8, #178, #46, #143, #13, #356, #316, #312, #181 ) ) ;
#292 = EDGE_CURVE ( 'NONE', #419, #256, #29, .T. ) ;
#293 = EDGE_CURVE ( 'NONE', #106, #325, #33, .T. ) ;
#294 = SURFACE_STYLE_USAGE ( .BOTH. , #69 ) ;
#295 = EDGE_LOOP ( 'NONE', ( #244, #357, #105, #413 ) ) ;
#296 = DIRECTION ( 'NONE',  ( 0.0000000000000000000, 0.0000000000000000000, 1.000000000000000000 ) ) ;
#297 = EDGE_CURVE ( 'NONE', #141, #335, #20, .T. ) ;
#298 = DIRECTION ( 'NONE',  ( 1.000000000000000000, 1.224646799147352000E-016, 0.0000000000000000000 ) ) ;
#299 = ORIENTED_EDGE ( 'NONE', *, *, #233, .F. ) ;
#300 = AXIS2_PLACEMENT_3D ( 'NONE', #172, #102, #230 ) ;
#301 = DIRECTION ( 'NONE',  ( 0.0000000000000000000, 0.0000000000000000000, -1.000000000000000000 ) ) ;
#302 = LINE ( 'NONE', #416, #92 ) ;
#303 = ORIENTED_EDGE ( 'NONE', *, *, #386, .T. ) ;
#304 = AXIS2_PLACEMENT_3D ( 'NONE', #76, #301, #103 ) ;
#305 = AXIS2_PLACEMENT_3D ( 'NONE', #16, #245, #55 ) ;
#306 = AXIS2_PLACEMENT_3D ( 'NONE', #399, #197, #97 ) ;
#307 = VERTEX_POINT ( 'NONE', #388 ) ;
#308 = EDGE_CURVE ( 'NONE', #251, #409, #15, .T. ) ;
#309 = EDGE_CURVE ( 'NONE', #100, #352, #19, .T. ) ;
#310 = DIRECTION ( 'NONE',  ( 0.0000000000000000000, -1.000000000000000000, 0.0000000000000000000 ) ) ;
#311 = EDGE_CURVE ( 'NONE', #325, #364, #12, .T. ) ;
#312 = ADVANCED_FACE ( 'NONE', ( #21 ), #5, .T. ) ;
#313 = AXIS2_PLACEMENT_3D ( 'NONE', #259, #74, #298 ) ;
#314 = AXIS2_PLACEMENT_3D ( 'NONE', #168, #422, #227 ) ;
#315 = CARTESIAN_POINT ( 'NONE',  ( 3.000000000000000000, 0.0000000000000000000, 0.0000000000000000000 ) ) ;
#316 = ADVANCED_FACE ( 'NONE', ( #11 ), #123, .F. ) ;
#317 = ORIENTED_EDGE ( 'NONE', *, *, #308, .T. ) ;
#318 = VECTOR ( 'NONE', #162, 1000.000000000000000 ) ;
#319 = ORIENTED_EDGE ( 'NONE', *, *, #233, .T. ) ;
#320 = ORIENTED_EDGE ( 'NONE', *, *, #278, .F. ) ;
#321 = AXIS2_PLACEMENT_3D ( 'NONE', #397, #96, #345 ) ;
#322 = PRESENTATION_STYLE_ASSIGNMENT (( #67 ) ) ;
#323 = AXIS2_PLACEMENT_3D ( 'NONE', #195, #224, #31 ) ;
#324 = CARTESIAN_POINT ( 'NONE',  ( 0.0000000000000000000, 0.0000000000000000000, -1.437250587901797800 ) ) ;
#325 = VERTEX_POINT ( 'NONE', #154 ) ;
#326 =( GEOMETRIC_REPRESENTATION_CONTEXT ( 3 ) GLOBAL_UNCERTAINTY_ASSIGNED_CONTEXT ( ( #204 ) ) GLOBAL_UNIT_ASSIGNED_CONTEXT ( ( #95, #343, #128 ) ) REPRESENTATION_CONTEXT ( 'NONE', 'WORKASPACE' ) );
#327 = CARTESIAN_POINT ( 'NONE',  ( 0.0000000000000000000, 0.0000000000000000000, 2.929024353313990100 ) ) ;
#328 = MECHANICAL_DESIGN_GEOMETRIC_PRESENTATION_REPRESENTATION (  '', ( #333 ), #326 ) ;
#329 = PRESENTATION_LAYER_ASSIGNMENT (  '', '', ( #333 ) ) ;
#330 = DIRECTION ( 'NONE',  ( -0.0000000000000000000, -0.0000000000000000000, -1.000000000000000000 ) ) ;
#331 = AXIS2_PLACEMENT_3D ( 'NONE', #77, #142, #115 ) ;
#332 = CARTESIAN_POINT ( 'NONE',  ( 2.575319372849285100, 0.0000000000000000000, -0.8372505879017979600 ) ) ;
#333 = STYLED_ITEM ( 'NONE', ( #85 ), #127 ) ;
#334 = EDGE_LOOP ( 'NONE', ( #320, #138 ) ) ;
#335 = VERTEX_POINT ( 'NONE', #390 ) ;
#336 = VECTOR ( 'NONE', #28, 1000.000000000000000 ) ;
#337 = CARTESIAN_POINT ( 'NONE',  ( 3.000000000000000000, 4.750000000000000000, 0.6627494120982020400 ) ) ;
#338 =( NAMED_UNIT ( * ) SI_UNIT ( $, .STERADIAN. ) SOLID_ANGLE_UNIT ( ) );
#339 = CARTESIAN_POINT ( 'NONE',  ( 3.000000000000000000, -4.750000000000000000, 0.6627494120982020400 ) ) ;
#340 = AXIS2_PLACEMENT_3D ( 'NONE', #240, #111, #107 ) ;
#341 = EDGE_CURVE ( 'NONE', #364, #307, #7, .T. ) ;
#342 = AXIS2_PLACEMENT_3D ( 'NONE', #315, #384, #355 ) ;
#343 =( NAMED_UNIT ( * ) PLANE_ANGLE_UNIT ( ) SI_UNIT ( $, .RADIAN. ) );
#344 = ORIENTED_EDGE ( 'NONE', *, *, #370, .T. ) ;
#345 = DIRECTION ( 'NONE',  ( 0.0000000000000000000, 0.0000000000000000000, 1.000000000000000000 ) ) ;
#346 = AXIS2_PLACEMENT_3D ( 'NONE', #48, #310, #358 ) ;
#347 = CARTESIAN_POINT ( 'NONE',  ( -3.000000000000000000, -4.750000000000000000, -0.8372505879017979600 ) ) ;
#348 = DIRECTION ( 'NONE',  ( 0.0000000000000000000, -0.7071067811865474600, -0.7071067811865474600 ) ) ;
#349 = EDGE_CURVE ( 'NONE', #307, #364, #6, .T. ) ;
#350 = EDGE_CURVE ( 'NONE', #184, #147, #52, .T. ) ;
#351 = CARTESIAN_POINT ( 'NONE',  ( -3.000000000000000000, 4.750000000000000000, -0.8372505879017979600 ) ) ;
#352 = VERTEX_POINT ( 'NONE', #216 ) ;
#353 = EDGE_CURVE ( 'NONE', #166, #335, #393, .T. ) ;
#354 = UNCERTAINTY_MEASURE_WITH_UNIT (LENGTH_MEASURE( 1.000000000000000100E-005 ), #287, 'distance_accuracy_value', 'NONE');
#355 = DIRECTION ( 'NONE',  ( 0.0000000000000000000, 0.0000000000000000000, -1.000000000000000000 ) ) ;
#356 = ADVANCED_FACE ( 'NONE', ( #75 ), #60, .F. ) ;
#357 = ORIENTED_EDGE ( 'NONE', *, *, #242, .F. ) ;
#358 = DIRECTION ( 'NONE',  ( 0.0000000000000000000, 0.0000000000000000000, -1.000000000000000000 ) ) ;
#359 = COLOUR_RGB ( '',0.4901960784313725300, 0.4901960784313725300, 0.4901960784313725300 ) ;
#360 = EDGE_CURVE ( 'NONE', #134, #166, #223, .T. ) ;
#361 = DIRECTION ( 'NONE',  ( 0.0000000000000000000, 0.0000000000000000000, -1.000000000000000000 ) ) ;
#362 = DIRECTION ( 'NONE',  ( 0.0000000000000000000, 0.0000000000000000000, -1.000000000000000000 ) ) ;
#363 = CARTESIAN_POINT ( 'NONE',  ( -3.000000000000000000, 0.0000000000000000000, 0.0000000000000000000 ) ) ;
#364 = VERTEX_POINT ( 'NONE', #332 ) ;
#365 = ORIENTED_EDGE ( 'NONE', *, *, #311, .F. ) ;
#366 = DIRECTION ( 'NONE',  ( 0.0000000000000000000, 0.0000000000000000000, -1.000000000000000000 ) ) ;
#367 = EDGE_CURVE ( 'NONE', #352, #221, #148, .T. ) ;
#368 =( NAMED_UNIT ( * ) PLANE_ANGLE_UNIT ( ) SI_UNIT ( $, .RADIAN. ) );
#369 = DIRECTION ( 'NONE',  ( 0.0000000000000000000, -0.7071067811865474600, 0.7071067811865474600 ) ) ;
#370 = EDGE_CURVE ( 'NONE', #221, #419, #160, .T. ) ;
#371 = FACE_OUTER_BOUND ( 'NONE', #176, .T. ) ;
#372 = DIRECTION ( 'NONE',  ( 0.0000000000000000000, 0.0000000000000000000, 1.000000000000000000 ) ) ;
#373 = DIRECTION ( 'NONE',  ( -0.0000000000000000000, -0.0000000000000000000, 1.000000000000000000 ) ) ;
#374 = ORIENTED_EDGE ( 'NONE', *, *, #379, .F. ) ;
#375 = CARTESIAN_POINT ( 'NONE',  ( 2.000000000000000000, 2.449293598294706400E-016, 2.662749412098199800 ) ) ;
#376 = VECTOR ( 'NONE', #286, 1000.000000000000000 ) ;
#377 = CARTESIAN_POINT ( 'NONE',  ( -2.000000000000000000, 0.0000000000000000000, 2.662749412098199800 ) ) ;
#378 = CARTESIAN_POINT ( 'NONE',  ( -3.000000000000000000, -4.750000000000000000, 0.6627494120982020400 ) ) ;
#379 = EDGE_CURVE ( 'NONE', #419, #251, #40, .T. ) ;
#380 = EDGE_CURVE ( 'NONE', #409, #184, #302, .T. ) ;
#381 = CARTESIAN_POINT ( 'NONE',  ( 3.000000000000000000, 2.750000000000000000, 2.662749412098199800 ) ) ;
#382 = VERTEX_POINT ( 'NONE', #122 ) ;
#383 = EDGE_CURVE ( 'NONE', #166, #134, #262, .T. ) ;
#384 = DIRECTION ( 'NONE',  ( 1.000000000000000000, 0.0000000000000000000, 0.0000000000000000000 ) ) ;
#385 = EDGE_LOOP ( 'NONE', ( #239, #109, #269, #344, #170, #104 ) ) ;
#386 = EDGE_CURVE ( 'NONE', #134, #141, #182, .T. ) ;
#387 = VERTEX_POINT ( 'NONE', #289 ) ;
#388 = CARTESIAN_POINT ( 'NONE',  ( -2.575319372849285100, 3.153856626742046200E-016, -0.8372505879017979600 ) ) ;
#389 = DIRECTION ( 'NONE',  ( 1.000000000000000000, 0.0000000000000000000, 0.0000000000000000000 ) ) ;
#390 = CARTESIAN_POINT ( 'NONE',  ( -2.000000000000000000, 0.0000000000000000000, -1.437250587901797800 ) ) ;
#391 = CARTESIAN_POINT ( 'NONE',  ( 0.0000000000000000000, 0.0000000000000000000, -0.8372505879017979600 ) ) ;
#392 = EDGE_CURVE ( 'NONE', #387, #184, #9, .T. ) ;
#393 = LINE ( 'NONE', #155, #408 ) ;
#394 = PRODUCT_CONTEXT ( 'NONE', #222, 'mechanical' ) ;
#395 = EDGE_CURVE ( 'NONE', #387, #100, #265, .T. ) ;
#396 = CARTESIAN_POINT ( 'NONE',  ( 3.000000000000000000, -4.750000000000000000, -0.8372505879017979600 ) ) ;
#397 = CARTESIAN_POINT ( 'NONE',  ( 3.000000000000000000, -4.750000000000000000, 0.6627494120982020400 ) ) ;
#398 = ORIENTED_EDGE ( 'NONE', *, *, #350, .F. ) ;
#399 = CARTESIAN_POINT ( 'NONE',  ( 0.0000000000000000000, 0.0000000000000000000, -1.437250587901797800 ) ) ;
#400 = DIRECTION ( 'NONE',  ( 0.0000000000000000000, 0.0000000000000000000, 1.000000000000000000 ) ) ;
#401 = ORIENTED_EDGE ( 'NONE', *, *, #349, .F. ) ;
#402 = DIRECTION ( 'NONE',  ( -1.000000000000000000, 0.0000000000000000000, 0.0000000000000000000 ) ) ;
#403 = SURFACE_STYLE_FILL_AREA ( #24 ) ;
#404 = ADVANCED_BREP_SHAPE_REPRESENTATION ( 'M4 T-Slot Nut', ( #127, #220 ), #258 ) ;
#405 = ORIENTED_EDGE ( 'NONE', *, *, #309, .F. ) ;
#406 = ADVANCED_FACE ( 'NONE', ( #371 ), #78, .T. ) ;
#407 = ORIENTED_EDGE ( 'NONE', *, *, #288, .T. ) ;
#408 = VECTOR ( 'NONE', #283, 1000.000000000000000 ) ;
#409 = VERTEX_POINT ( 'NONE', #61 ) ;
#410 = ORIENTED_EDGE ( 'NONE', *, *, #392, .T. ) ;
#411 = CARTESIAN_POINT ( 'NONE',  ( -3.000000000000000000, -4.750000000000000000, 0.6627494120982020400 ) ) ;
#412 = DIRECTION ( 'NONE',  ( 1.000000000000000000, 0.0000000000000000000, 0.0000000000000000000 ) ) ;
#413 = ORIENTED_EDGE ( 'NONE', *, *, #341, .T. ) ;
#414 = DIRECTION ( 'NONE',  ( 0.0000000000000000000, 0.0000000000000000000, 1.000000000000000000 ) ) ;
#415 = CARTESIAN_POINT ( 'NONE',  ( 3.000000000000000000, 2.750000000000000000, 2.662749412098199800 ) ) ;
#416 = CARTESIAN_POINT ( 'NONE',  ( -3.000000000000000000, -2.750000000000000000, 2.662749412098199800 ) ) ;
#417 = APPLICATION_PROTOCOL_DEFINITION ( 'draft international standard', 'automotive_design', 1998, #191 ) ;
#418 = EDGE_LOOP ( 'NONE', ( #317, #151, #203, #252 ) ) ;
#419 = VERTEX_POINT ( 'NONE', #22 ) ;
#420 = CARTESIAN_POINT ( 'NONE',  ( 3.000000000000000000, -4.750000000000000000, -0.8372505879017979600 ) ) ;
#421 = PLANE ( 'NONE',  #323 ) ;
#422 = DIRECTION ( 'NONE',  ( 0.0000000000000000000, -0.7071067811865475700, -0.7071067811865475700 ) ) ;
ENDSEC;
END-ISO-10303-21;
