ISO-10303-21;
HEADER;
FILE_DESCRIPTION (( 'STEP AP214' ),
    '1' );
FILE_NAME ('M4 Split Washer.step',
    '2018-06-21T12:58:49',
    ( 'User' ),
    ( 'china' ),
    'SwSTEP 2.0',
    'SolidWorks 2016',
    '' );
FILE_SCHEMA (( 'AUTOMOTIVE_DESIGN' ));
ENDSEC;

DATA;
#1 = ADVANCED_FACE ( 'NONE', ( #85 ), #78, .T. ) ;
#2 = PRESENTATION_STYLE_ASSIGNMENT (( #156 ) ) ;
#3 = CYLINDRICAL_SURFACE ( 'NONE', #282, 3.600000000000000100 ) ;
#4 = SURFACE_STYLE_FILL_AREA ( #244 ) ;
#5 = DIRECTION ( 'NONE',  ( -0.0000000000000000000, -1.000000000000000000, -0.0000000000000000000 ) ) ;
#6 = DIRECTION ( 'NONE',  ( 0.0000000000000000000, 0.0000000000000000000, 1.000000000000000000 ) ) ;
#7 = AXIS2_PLACEMENT_3D ( 'NONE', #45, #43, #6 ) ;
#8 = SURFACE_STYLE_FILL_AREA ( #55 ) ;
#9 = FACE_OUTER_BOUND ( 'NONE', #125, .T. ) ;
#10 = VECTOR ( 'NONE', #274, 1000.000000000000000 ) ;
#11 = CARTESIAN_POINT ( 'NONE',  ( 0.0000000000000000000, 1.000000000000000000, 0.0000000000000000000 ) ) ;
#12 = LINE ( 'NONE', #339, #10 ) ;
#13 = CARTESIAN_POINT ( 'NONE',  ( 2.000000000000000000, 0.0000000000000000000, 0.1999999999999999800 ) ) ;
#14 = CARTESIAN_POINT ( 'NONE',  ( 0.0000000000000000000, 1.000000000000000000, -3.600000000000000100 ) ) ;
#15 = DIRECTION ( 'NONE',  ( 0.0000000000000000000, 1.000000000000000000, 0.0000000000000000000 ) ) ;
#16 = CIRCLE ( 'NONE', #286, 2.100000000000000100 ) ;
#17 = DIRECTION ( 'NONE',  ( 0.0000000000000000000, 0.0000000000000000000, -1.000000000000000000 ) ) ;
#18 = COLOUR_RGB ( '',1.000000000000000000, 1.000000000000000000, 1.000000000000000000 ) ;
#19 =( NAMED_UNIT ( * ) SI_UNIT ( $, .STERADIAN. ) SOLID_ANGLE_UNIT ( ) );
#20 = APPLICATION_PROTOCOL_DEFINITION ( 'draft international standard', 'automotive_design', 1998, #58 ) ;
#21 = APPLICATION_CONTEXT ( 'automotive_design' ) ;
#22 = AXIS2_PLACEMENT_3D ( 'NONE', #138, #108, #80 ) ;
#23 = FACE_OUTER_BOUND ( 'NONE', #149, .T. ) ;
#24 = VECTOR ( 'NONE', #48, 1000.000000000000000 ) ;
#25 = CIRCLE ( 'NONE', #288, 2.100000000000000100 ) ;
#26 = LINE ( 'NONE', #14, #24 ) ;
#27 = CARTESIAN_POINT ( 'NONE',  ( 0.0000000000000000000, 1.000000000000000000, 0.0000000000000000000 ) ) ;
#28 = VECTOR ( 'NONE', #337, 1000.000000000000000 ) ;
#29 = CIRCLE ( 'NONE', #287, 2.100000000000000100 ) ;
#30 = VECTOR ( 'NONE', #140, 1000.000000000000000 ) ;
#31 = CARTESIAN_POINT ( 'NONE',  ( 0.0000000000000000000, 1.000000000000000000, 0.0000000000000000000 ) ) ;
#32 = AXIS2_PLACEMENT_3D ( 'NONE', #263, #204, #137 ) ;
#33 = LINE ( 'NONE', #318, #28 ) ;
#34 = VECTOR ( 'NONE', #205, 1000.000000000000000 ) ;
#35 = FACE_OUTER_BOUND ( 'NONE', #136, .T. ) ;
#36 = LINE ( 'NONE', #115, #30 ) ;
#37 = CIRCLE ( 'NONE', #290, 2.100000000000000100 ) ;
#38 = CIRCLE ( 'NONE', #292, 3.600000000000000100 ) ;
#39 = ADVANCED_FACE ( 'NONE', ( #83 ), #76, .F. ) ;
#40 = CIRCLE ( 'NONE', #289, 2.100000000000000100 ) ;
#41 = VECTOR ( 'NONE', #320, 1000.000000000000000 ) ;
#42 = PRESENTATION_STYLE_ASSIGNMENT (( #278 ) ) ;
#43 = DIRECTION ( 'NONE',  ( 0.0000000000000000000, 1.000000000000000000, 0.0000000000000000000 ) ) ;
#44 = FACE_OUTER_BOUND ( 'NONE', #295, .T. ) ;
#45 = CARTESIAN_POINT ( 'NONE',  ( 0.0000000000000000000, 0.0000000000000000000, 0.0000000000000000000 ) ) ;
#46 = LINE ( 'NONE', #112, #41 ) ;
#47 = VECTOR ( 'NONE', #203, 1000.000000000000000 ) ;
#48 = DIRECTION ( 'NONE',  ( -0.0000000000000000000, -1.000000000000000000, -0.0000000000000000000 ) ) ;
#49 = CARTESIAN_POINT ( 'NONE',  ( 0.0000000000000000000, 1.000000000000000000, 0.0000000000000000000 ) ) ;
#50 = CIRCLE ( 'NONE', #294, 3.600000000000000100 ) ;
#51 = LINE ( 'NONE', #168, #47 ) ;
#52 = VECTOR ( 'NONE', #298, 1000.000000000000000 ) ;
#53 = LINE ( 'NONE', #13, #34 ) ;
#54 = DIRECTION ( 'NONE',  ( 0.0000000000000000000, 1.000000000000000000, 0.0000000000000000000 ) ) ;
#55 = FILL_AREA_STYLE ('',( #88 ) ) ;
#56 = DIRECTION ( 'NONE',  ( 0.0000000000000000000, 0.0000000000000000000, -1.000000000000000000 ) ) ;
#57 = AXIS2_PLACEMENT_3D ( 'NONE', #31, #62, #345 ) ;
#58 = APPLICATION_CONTEXT ( 'automotive_design' ) ;
#59 = VECTOR ( 'NONE', #5, 1000.000000000000000 ) ;
#60 = CIRCLE ( 'NONE', #22, 2.100000000000000100 ) ;
#61 = LINE ( 'NONE', #114, #52 ) ;
#62 = DIRECTION ( 'NONE',  ( -0.0000000000000000000, -1.000000000000000000, -0.0000000000000000000 ) ) ;
#63 = LINE ( 'NONE', #166, #59 ) ;
#64 = VECTOR ( 'NONE', #202, 1000.000000000000000 ) ;
#65 = CIRCLE ( 'NONE', #86, 3.600000000000000100 ) ;
#66 = CYLINDRICAL_SURFACE ( 'NONE', #273, 3.600000000000000100 ) ;
#67 = VECTOR ( 'NONE', #299, 1000.000000000000000 ) ;
#68 = AXIS2_PLACEMENT_3D ( 'NONE', #297, #230, #228 ) ;
#69 = LINE ( 'NONE', #313, #67 ) ;
#70 = CYLINDRICAL_SURFACE ( 'NONE', #57, 2.100000000000000100 ) ;
#71 = LINE ( 'NONE', #79, #64 ) ;
#72 = FACE_OUTER_BOUND ( 'NONE', #261, .T. ) ;
#73 = VECTOR ( 'NONE', #248, 1000.000000000000000 ) ;
#74 = FACE_OUTER_BOUND ( 'NONE', #105, .T. ) ;
#75 = CIRCLE ( 'NONE', #180, 3.600000000000000100 ) ;
#76 = CYLINDRICAL_SURFACE ( 'NONE', #246, 2.100000000000000100 ) ;
#77 = LINE ( 'NONE', #160, #73 ) ;
#78 = CYLINDRICAL_SURFACE ( 'NONE', #201, 3.600000000000000100 ) ;
#79 = CARTESIAN_POINT ( 'NONE',  ( 3.594440151122285900, 1.000000000000000000, 0.1999999999999999800 ) ) ;
#80 = DIRECTION ( 'NONE',  ( 0.0000000000000000000, 0.0000000000000000000, 1.000000000000000000 ) ) ;
#81 = CIRCLE ( 'NONE', #7, 3.600000000000000100 ) ;
#82 = CIRCLE ( 'NONE', #68, 3.600000000000000100 ) ;
#83 = FACE_OUTER_BOUND ( 'NONE', #98, .T. ) ;
#84 = DIRECTION ( 'NONE',  ( 0.0000000000000000000, 0.0000000000000000000, 1.000000000000000000 ) ) ;
#85 = FACE_OUTER_BOUND ( 'NONE', #327, .T. ) ;
#86 = AXIS2_PLACEMENT_3D ( 'NONE', #11, #333, #314 ) ;
#87 = CARTESIAN_POINT ( 'NONE',  ( 0.0000000000000000000, 0.0000000000000000000, 0.0000000000000000000 ) ) ;
#88 = FILL_AREA_STYLE_COLOUR ( '', #18 ) ;
#89 = ORIENTED_EDGE ( 'NONE', *, *, #234, .T. ) ;
#90 = ORIENTED_EDGE ( 'NONE', *, *, #193, .F. ) ;
#91 = ORIENTED_EDGE ( 'NONE', *, *, #167, .F. ) ;
#92 = SURFACE_SIDE_STYLE ('',( #4 ) ) ;
#93 = ORIENTED_EDGE ( 'NONE', *, *, #197, .T. ) ;
#94 = VERTEX_POINT ( 'NONE', #155 ) ;
#95 = ORIENTED_EDGE ( 'NONE', *, *, #236, .T. ) ;
#96 = EDGE_LOOP ( 'NONE', ( #95, #315, #309, #163 ) ) ;
#97 = DIRECTION ( 'NONE',  ( -0.0000000000000000000, -1.000000000000000000, -0.0000000000000000000 ) ) ;
#98 = EDGE_LOOP ( 'NONE', ( #91, #250, #224, #176 ) ) ;
#99 = ORIENTED_EDGE ( 'NONE', *, *, #169, .F. ) ;
#100 = VERTEX_POINT ( 'NONE', #209 ) ;
#101 = VERTEX_POINT ( 'NONE', #186 ) ;
#102 = VERTEX_POINT ( 'NONE', #214 ) ;
#103 = PRODUCT ( 'M4 Split Washer', 'M4 Split Washer', '', ( #184 ) ) ;
#104 = VERTEX_POINT ( 'NONE', #216 ) ;
#105 = EDGE_LOOP ( 'NONE', ( #221, #161, #302, #293 ) ) ;
#106 = EDGE_LOOP ( 'NONE', ( #219, #132, #344, #252 ) ) ;
#107 = EDGE_CURVE ( 'NONE', #101, #331, #77, .T. ) ;
#108 = DIRECTION ( 'NONE',  ( 0.0000000000000000000, 1.000000000000000000, 0.0000000000000000000 ) ) ;
#109 = UNCERTAINTY_MEASURE_WITH_UNIT (LENGTH_MEASURE( 1.000000000000000100E-005 ), #124, 'distance_accuracy_value', 'NONE');
#110 = ORIENTED_EDGE ( 'NONE', *, *, #164, .F. ) ;
#111 = ORIENTED_EDGE ( 'NONE', *, *, #195, .F. ) ;
#112 = CARTESIAN_POINT ( 'NONE',  ( 2.000000000000000000, 1.000000000000000000, 0.1999999999999999800 ) ) ;
#113 = DIRECTION ( 'NONE',  ( 0.0000000000000000000, 1.000000000000000000, 0.0000000000000000000 ) ) ;
#114 = CARTESIAN_POINT ( 'NONE',  ( 2.090454496036687500, 1.000000000000000000, -0.1999999999999999800 ) ) ;
#115 = CARTESIAN_POINT ( 'NONE',  ( 3.594440151122285900, 1.000000000000000000, -0.1999999999999999800 ) ) ;
#116 = DIRECTION ( 'NONE',  ( 0.0000000000000000000, 0.0000000000000000000, 1.000000000000000000 ) ) ;
#117 = ORIENTED_EDGE ( 'NONE', *, *, #173, .F. ) ;
#118 = ADVANCED_FACE ( 'NONE', ( #72 ), #235, .F. ) ;
#119 = EDGE_CURVE ( 'NONE', #104, #331, #75, .T. ) ;
#120 = CARTESIAN_POINT ( 'NONE',  ( 0.0000000000000000000, 1.000000000000000000, 0.0000000000000000000 ) ) ;
#121 = DIRECTION ( 'NONE',  ( 0.0000000000000000000, 0.0000000000000000000, 1.000000000000000000 ) ) ;
#122 = DIRECTION ( 'NONE',  ( -0.0000000000000000000, -1.000000000000000000, -0.0000000000000000000 ) ) ;
#123 = DIRECTION ( 'NONE',  ( 0.0000000000000000000, 1.000000000000000000, 0.0000000000000000000 ) ) ;
#124 =( LENGTH_UNIT ( ) NAMED_UNIT ( * ) SI_UNIT ( .MILLI., .METRE. ) );
#125 = EDGE_LOOP ( 'NONE', ( #326, #211, #89, #171 ) ) ;
#126 = PRODUCT_DEFINITION_CONTEXT ( 'detailed design', #21, 'design' ) ;
#127 = CLOSED_SHELL ( 'NONE', ( #321, #135, #1, #254, #208, #237, #340, #39, #118, #148 ) ) ;
#128 = ORIENTED_EDGE ( 'NONE', *, *, #169, .T. ) ;
#129 = CARTESIAN_POINT ( 'NONE',  ( 0.0000000000000000000, 1.000000000000000000, 0.0000000000000000000 ) ) ;
#130 = UNCERTAINTY_MEASURE_WITH_UNIT (LENGTH_MEASURE( 1.000000000000000100E-005 ), #342, 'distance_accuracy_value', 'NONE');
#131 = ORIENTED_EDGE ( 'NONE', *, *, #164, .T. ) ;
#132 = ORIENTED_EDGE ( 'NONE', *, *, #196, .F. ) ;
#133 = FACE_OUTER_BOUND ( 'NONE', #96, .T. ) ;
#134 = CYLINDRICAL_SURFACE ( 'NONE', #275, 2.100000000000000100 ) ;
#135 = ADVANCED_FACE ( 'NONE', ( #133 ), #70, .F. ) ;
#136 = EDGE_LOOP ( 'NONE', ( #239, #170, #329, #307, #280, #192, #117, #330 ) ) ;
#137 = DIRECTION ( 'NONE',  ( -1.000000000000000000, 0.0000000000000000000, -0.0000000000000000000 ) ) ;
#138 = CARTESIAN_POINT ( 'NONE',  ( 0.0000000000000000000, 1.000000000000000000, 0.0000000000000000000 ) ) ;
#139 = CARTESIAN_POINT ( 'NONE',  ( 3.594440151122285900, 0.0000000000000000000, 0.1999999999999999800 ) ) ;
#140 = DIRECTION ( 'NONE',  ( -0.0000000000000000000, -1.000000000000000000, -0.0000000000000000000 ) ) ;
#141 = FACE_OUTER_BOUND ( 'NONE', #106, .T. ) ;
#142 = CARTESIAN_POINT ( 'NONE',  ( 0.0000000000000000000, 1.000000000000000000, 0.0000000000000000000 ) ) ;
#143 = DIRECTION ( 'NONE',  ( -0.0000000000000000000, -1.000000000000000000, -0.0000000000000000000 ) ) ;
#144 = DIRECTION ( 'NONE',  ( 0.0000000000000000000, 0.0000000000000000000, -1.000000000000000000 ) ) ;
#145 =( NAMED_UNIT ( * ) SI_UNIT ( $, .STERADIAN. ) SOLID_ANGLE_UNIT ( ) );
#146 = COLOUR_RGB ( '',1.000000000000000000, 1.000000000000000000, 1.000000000000000000 ) ;
#147 = DIRECTION ( 'NONE',  ( 0.0000000000000000000, 0.0000000000000000000, -1.000000000000000000 ) ) ;
#148 = ADVANCED_FACE ( 'NONE', ( #74 ), #260, .F. ) ;
#149 = EDGE_LOOP ( 'NONE', ( #310, #165, #335, #245 ) ) ;
#150 = DIRECTION ( 'NONE',  ( -0.0000000000000000000, -1.000000000000000000, -0.0000000000000000000 ) ) ;
#151 = DIRECTION ( 'NONE',  ( 0.0000000000000000000, 1.000000000000000000, 0.0000000000000000000 ) ) ;
#152 = CARTESIAN_POINT ( 'NONE',  ( 0.0000000000000000000, 0.0000000000000000000, 0.0000000000000000000 ) ) ;
#153 = PLANE ( 'NONE',  #285 ) ;
#154 = DIRECTION ( 'NONE',  ( 0.0000000000000000000, 1.000000000000000000, 0.0000000000000000000 ) ) ;
#155 = CARTESIAN_POINT ( 'NONE',  ( 2.571758278209442000E-016, 0.0000000000000000000, 2.100000000000000100 ) ) ;
#156 = SURFACE_STYLE_USAGE ( .BOTH. , #323 ) ;
#157 =( NAMED_UNIT ( * ) PLANE_ANGLE_UNIT ( ) SI_UNIT ( $, .RADIAN. ) );
#158 = CARTESIAN_POINT ( 'NONE',  ( 0.0000000000000000000, 0.0000000000000000000, 0.0000000000000000000 ) ) ;
#159 = DIRECTION ( 'NONE',  ( 0.0000000000000000000, 0.0000000000000000000, 1.000000000000000000 ) ) ;
#160 = CARTESIAN_POINT ( 'NONE',  ( 4.408728476930471200E-016, 1.000000000000000000, 3.600000000000000100 ) ) ;
#161 = ORIENTED_EDGE ( 'NONE', *, *, #191, .T. ) ;
#162 = VERTEX_POINT ( 'NONE', #175 ) ;
#163 = ORIENTED_EDGE ( 'NONE', *, *, #191, .F. ) ;
#164 = EDGE_CURVE ( 'NONE', #101, #198, #82, .T. ) ;
#165 = ORIENTED_EDGE ( 'NONE', *, *, #167, .T. ) ;
#166 = CARTESIAN_POINT ( 'NONE',  ( 0.0000000000000000000, 1.000000000000000000, -2.100000000000000100 ) ) ;
#167 = EDGE_CURVE ( 'NONE', #249, #94, #69, .T. ) ;
#168 = CARTESIAN_POINT ( 'NONE',  ( 2.000000000000000000, 1.000000000000000000, -0.1999999999999999800 ) ) ;
#169 = EDGE_CURVE ( 'NONE', #231, #198, #71, .T. ) ;
#170 = ORIENTED_EDGE ( 'NONE', *, *, #242, .T. ) ;
#171 = ORIENTED_EDGE ( 'NONE', *, *, #119, .T. ) ;
#172 = CARTESIAN_POINT ( 'NONE',  ( 0.0000000000000000000, 1.000000000000000000, -3.600000000000000100 ) ) ;
#173 = EDGE_CURVE ( 'NONE', #331, #231, #81, .T. ) ;
#174 = DIRECTION ( 'NONE',  ( 0.0000000000000000000, 0.0000000000000000000, 1.000000000000000000 ) ) ;
#175 = CARTESIAN_POINT ( 'NONE',  ( 2.090454496036687500, 0.0000000000000000000, -0.1999999999999999800 ) ) ;
#176 = ORIENTED_EDGE ( 'NONE', *, *, #222, .F. ) ;
#177 = CARTESIAN_POINT ( 'NONE',  ( 0.0000000000000000000, 1.000000000000000000, 0.0000000000000000000 ) ) ;
#178 = VERTEX_POINT ( 'NONE', #317 ) ;
#179 = DIRECTION ( 'NONE',  ( -0.0000000000000000000, -1.000000000000000000, -0.0000000000000000000 ) ) ;
#180 = AXIS2_PLACEMENT_3D ( 'NONE', #306, #269, #190 ) ;
#181 =( NAMED_UNIT ( * ) PLANE_ANGLE_UNIT ( ) SI_UNIT ( $, .RADIAN. ) );
#182 = PLANE ( 'NONE',  #291 ) ;
#183 = CARTESIAN_POINT ( 'NONE',  ( 0.0000000000000000000, 1.000000000000000000, 0.0000000000000000000 ) ) ;
#184 = PRODUCT_CONTEXT ( 'NONE', #58, 'mechanical' ) ;
#185 = ORIENTED_EDGE ( 'NONE', *, *, #173, .T. ) ;
#186 = CARTESIAN_POINT ( 'NONE',  ( 4.408728476930471200E-016, 1.000000000000000000, 3.600000000000000100 ) ) ;
#187 = EDGE_CURVE ( 'NONE', #215, #101, #65, .T. ) ;
#188 = CARTESIAN_POINT ( 'NONE',  ( 2.090454496036687500, 1.000000000000000000, 0.1999999999999999800 ) ) ;
#189 = EDGE_CURVE ( 'NONE', #271, #102, #63, .T. ) ;
#190 = DIRECTION ( 'NONE',  ( 0.0000000000000000000, 0.0000000000000000000, 1.000000000000000000 ) ) ;
#191 = EDGE_CURVE ( 'NONE', #100, #162, #61, .T. ) ;
#192 = ORIENTED_EDGE ( 'NONE', *, *, #226, .T. ) ;
#193 = EDGE_CURVE ( 'NONE', #271, #249, #60, .T. ) ;
#194 = ORIENTED_EDGE ( 'NONE', *, *, #187, .T. ) ;
#195 = EDGE_CURVE ( 'NONE', #178, #100, #51, .T. ) ;
#196 = EDGE_CURVE ( 'NONE', #178, #215, #50, .T. ) ;
#197 = EDGE_CURVE ( 'NONE', #200, #198, #46, .T. ) ;
#198 = VERTEX_POINT ( 'NONE', #305 ) ;
#199 = ORIENTED_EDGE ( 'NONE', *, *, #223, .F. ) ;
#200 = VERTEX_POINT ( 'NONE', #188 ) ;
#201 = AXIS2_PLACEMENT_3D ( 'NONE', #129, #150, #147 ) ;
#202 = DIRECTION ( 'NONE',  ( 0.0000000000000000000, 1.000000000000000000, 0.0000000000000000000 ) ) ;
#203 = DIRECTION ( 'NONE',  ( -1.000000000000000000, -0.0000000000000000000, -0.0000000000000000000 ) ) ;
#204 = DIRECTION ( 'NONE',  ( 0.0000000000000000000, 0.0000000000000000000, -1.000000000000000000 ) ) ;
#205 = DIRECTION ( 'NONE',  ( 1.000000000000000000, 0.0000000000000000000, 0.0000000000000000000 ) ) ;
#206 = CARTESIAN_POINT ( 'NONE',  ( 0.0000000000000000000, 0.0000000000000000000, 0.0000000000000000000 ) ) ;
#207 = DIRECTION ( 'NONE',  ( 0.0000000000000000000, 0.0000000000000000000, 1.000000000000000000 ) ) ;
#208 = ADVANCED_FACE ( 'NONE', ( #44 ), #182, .T. ) ;
#209 = CARTESIAN_POINT ( 'NONE',  ( 2.090454496036687500, 1.000000000000000000, -0.1999999999999999800 ) ) ;
#210 = CARTESIAN_POINT ( 'NONE',  ( 2.571758278209442000E-016, 1.000000000000000000, 2.100000000000000100 ) ) ;
#211 = ORIENTED_EDGE ( 'NONE', *, *, #187, .F. ) ;
#212 = UNCERTAINTY_MEASURE_WITH_UNIT (LENGTH_MEASURE( 1.000000000000000100E-005 ), #324, 'distance_accuracy_value', 'NONE');
#213 = APPLICATION_PROTOCOL_DEFINITION ( 'draft international standard', 'automotive_design', 1998, #21 ) ;
#214 = CARTESIAN_POINT ( 'NONE',  ( 0.0000000000000000000, 0.0000000000000000000, -2.100000000000000100 ) ) ;
#215 = VERTEX_POINT ( 'NONE', #172 ) ;
#216 = CARTESIAN_POINT ( 'NONE',  ( 0.0000000000000000000, 0.0000000000000000000, -3.600000000000000100 ) ) ;
#217 = AXIS2_PLACEMENT_3D ( 'NONE', #328, #336, #338 ) ;
#218 = ORIENTED_EDGE ( 'NONE', *, *, #226, .F. ) ;
#219 = ORIENTED_EDGE ( 'NONE', *, *, #234, .F. ) ;
#220 = EDGE_CURVE ( 'NONE', #319, #104, #38, .T. ) ;
#221 = ORIENTED_EDGE ( 'NONE', *, *, #195, .T. ) ;
#222 = EDGE_CURVE ( 'NONE', #94, #259, #37, .T. ) ;
#223 = EDGE_CURVE ( 'NONE', #249, #200, #40, .T. ) ;
#224 = ORIENTED_EDGE ( 'NONE', *, *, #229, .F. ) ;
#225 = SHAPE_DEFINITION_REPRESENTATION ( #311, #312 ) ;
#226 = EDGE_CURVE ( 'NONE', #259, #231, #53, .T. ) ;
#227 = EDGE_CURVE ( 'NONE', #178, #319, #36, .T. ) ;
#228 = DIRECTION ( 'NONE',  ( 0.0000000000000000000, 0.0000000000000000000, 1.000000000000000000 ) ) ;
#229 = EDGE_CURVE ( 'NONE', #259, #200, #33, .T. ) ;
#230 = DIRECTION ( 'NONE',  ( 0.0000000000000000000, 1.000000000000000000, 0.0000000000000000000 ) ) ;
#231 = VERTEX_POINT ( 'NONE', #139 ) ;
#232 = EDGE_CURVE ( 'NONE', #102, #94, #25, .T. ) ;
#233 = DIRECTION ( 'NONE',  ( 0.0000000000000000000, 1.000000000000000000, 0.0000000000000000000 ) ) ;
#234 = EDGE_CURVE ( 'NONE', #215, #104, #26, .T. ) ;
#235 = PLANE ( 'NONE',  #217 ) ;
#236 = EDGE_CURVE ( 'NONE', #100, #271, #29, .T. ) ;
#237 = ADVANCED_FACE ( 'NONE', ( #35 ), #153, .F. ) ;
#238 = DIRECTION ( 'NONE',  ( 0.0000000000000000000, -0.0000000000000000000, 1.000000000000000000 ) ) ;
#239 = ORIENTED_EDGE ( 'NONE', *, *, #220, .F. ) ;
#240 = CARTESIAN_POINT ( 'NONE',  ( 4.408728476930471200E-016, 0.0000000000000000000, 3.600000000000000100 ) ) ;
#241 = EDGE_CURVE ( 'NONE', #162, #102, #16, .T. ) ;
#242 = EDGE_CURVE ( 'NONE', #319, #162, #12, .T. ) ;
#243 = CARTESIAN_POINT ( 'NONE',  ( 3.594440151122285900, 0.0000000000000000000, -0.1999999999999999800 ) ) ;
#244 = FILL_AREA_STYLE ('',( #303 ) ) ;
#245 = ORIENTED_EDGE ( 'NONE', *, *, #189, .F. ) ;
#246 = AXIS2_PLACEMENT_3D ( 'NONE', #27, #97, #262 ) ;
#247 = ORIENTED_EDGE ( 'NONE', *, *, #229, .T. ) ;
#248 = DIRECTION ( 'NONE',  ( -0.0000000000000000000, -1.000000000000000000, -0.0000000000000000000 ) ) ;
#249 = VERTEX_POINT ( 'NONE', #210 ) ;
#250 = ORIENTED_EDGE ( 'NONE', *, *, #223, .T. ) ;
#251 = ORIENTED_EDGE ( 'NONE', *, *, #236, .F. ) ;
#252 = ORIENTED_EDGE ( 'NONE', *, *, #220, .T. ) ;
#253 = PRODUCT_RELATED_PRODUCT_CATEGORY ( 'part', '', ( #103 ) ) ;
#254 = ADVANCED_FACE ( 'NONE', ( #9 ), #3, .T. ) ;
#255 = ORIENTED_EDGE ( 'NONE', *, *, #196, .T. ) ;
#256 = PRODUCT_DEFINITION_FORMATION_WITH_SPECIFIED_SOURCE ( 'ÈÎºÎ', '', #103, .NOT_KNOWN. ) ;
#257 = PRODUCT_DEFINITION ( 'Î´Öª', '', #256, #126 ) ;
#258 = AXIS2_PLACEMENT_3D ( 'NONE', #158, #159, #346 ) ;
#259 = VERTEX_POINT ( 'NONE', #276 ) ;
#260 = PLANE ( 'NONE',  #32 ) ;
#261 = EDGE_LOOP ( 'NONE', ( #218, #247, #93, #99 ) ) ;
#262 = DIRECTION ( 'NONE',  ( 0.0000000000000000000, 0.0000000000000000000, -1.000000000000000000 ) ) ;
#263 = CARTESIAN_POINT ( 'NONE',  ( 2.000000000000000000, 0.0000000000000000000, -0.1999999999999999800 ) ) ;
#264 =( GEOMETRIC_REPRESENTATION_CONTEXT ( 3 ) GLOBAL_UNCERTAINTY_ASSIGNED_CONTEXT ( ( #109 ) ) GLOBAL_UNIT_ASSIGNED_CONTEXT ( ( #124, #304, #145 ) ) REPRESENTATION_CONTEXT ( 'NONE', 'WORKASPACE' ) );
#265 = CARTESIAN_POINT ( 'NONE',  ( 0.0000000000000000000, 0.0000000000000000000, 0.0000000000000000000 ) ) ;
#266 = MECHANICAL_DESIGN_GEOMETRIC_PRESENTATION_REPRESENTATION (  '', ( #272 ), #264 ) ;
#267 = PRESENTATION_LAYER_ASSIGNMENT (  '', '', ( #272 ) ) ;
#268 = ORIENTED_EDGE ( 'NONE', *, *, #107, .T. ) ;
#269 = DIRECTION ( 'NONE',  ( 0.0000000000000000000, 1.000000000000000000, 0.0000000000000000000 ) ) ;
#270 = DIRECTION ( 'NONE',  ( 0.0000000000000000000, 1.000000000000000000, 0.0000000000000000000 ) ) ;
#271 = VERTEX_POINT ( 'NONE', #301 ) ;
#272 = STYLED_ITEM ( 'NONE', ( #42 ), #312 ) ;
#273 = AXIS2_PLACEMENT_3D ( 'NONE', #325, #122, #144 ) ;
#274 = DIRECTION ( 'NONE',  ( -1.000000000000000000, -0.0000000000000000000, -0.0000000000000000000 ) ) ;
#275 = AXIS2_PLACEMENT_3D ( 'NONE', #120, #143, #56 ) ;
#276 = CARTESIAN_POINT ( 'NONE',  ( 2.090454496036687500, 0.0000000000000000000, 0.1999999999999999800 ) ) ;
#277 =( GEOMETRIC_REPRESENTATION_CONTEXT ( 3 ) GLOBAL_UNCERTAINTY_ASSIGNED_CONTEXT ( ( #212 ) ) GLOBAL_UNIT_ASSIGNED_CONTEXT ( ( #324, #157, #343 ) ) REPRESENTATION_CONTEXT ( 'NONE', 'WORKASPACE' ) );
#278 = SURFACE_STYLE_USAGE ( .BOTH. , #92 ) ;
#279 =( GEOMETRIC_REPRESENTATION_CONTEXT ( 3 ) GLOBAL_UNCERTAINTY_ASSIGNED_CONTEXT ( ( #130 ) ) GLOBAL_UNIT_ASSIGNED_CONTEXT ( ( #342, #181, #19 ) ) REPRESENTATION_CONTEXT ( 'NONE', 'WORKASPACE' ) );
#280 = ORIENTED_EDGE ( 'NONE', *, *, #222, .T. ) ;
#281 = MECHANICAL_DESIGN_GEOMETRIC_PRESENTATION_REPRESENTATION (  '', ( #283 ), #279 ) ;
#282 = AXIS2_PLACEMENT_3D ( 'NONE', #142, #179, #17 ) ;
#283 = STYLED_ITEM ( 'NONE', ( #2 ), #296 ) ;
#284 = PRESENTATION_LAYER_ASSIGNMENT (  '', '', ( #283 ) ) ;
#285 = AXIS2_PLACEMENT_3D ( 'NONE', #206, #54, #238 ) ;
#286 = AXIS2_PLACEMENT_3D ( 'NONE', #322, #154, #341 ) ;
#287 = AXIS2_PLACEMENT_3D ( 'NONE', #177, #15, #207 ) ;
#288 = AXIS2_PLACEMENT_3D ( 'NONE', #87, #270, #116 ) ;
#289 = AXIS2_PLACEMENT_3D ( 'NONE', #49, #233, #84 ) ;
#290 = AXIS2_PLACEMENT_3D ( 'NONE', #152, #334, #174 ) ;
#291 = AXIS2_PLACEMENT_3D ( 'NONE', #316, #151, #332 ) ;
#292 = AXIS2_PLACEMENT_3D ( 'NONE', #265, #113, #300 ) ;
#293 = ORIENTED_EDGE ( 'NONE', *, *, #227, .F. ) ;
#294 = AXIS2_PLACEMENT_3D ( 'NONE', #183, #123, #121 ) ;
#295 = EDGE_LOOP ( 'NONE', ( #111, #255, #194, #131, #308, #199, #90, #251 ) ) ;
#296 = MANIFOLD_SOLID_BREP ( 'ÇÐ³ý-À­Éì1', #127 ) ;
#297 = CARTESIAN_POINT ( 'NONE',  ( 0.0000000000000000000, 1.000000000000000000, 0.0000000000000000000 ) ) ;
#298 = DIRECTION ( 'NONE',  ( -0.0000000000000000000, -1.000000000000000000, -0.0000000000000000000 ) ) ;
#299 = DIRECTION ( 'NONE',  ( -0.0000000000000000000, -1.000000000000000000, -0.0000000000000000000 ) ) ;
#300 = DIRECTION ( 'NONE',  ( 0.0000000000000000000, 0.0000000000000000000, 1.000000000000000000 ) ) ;
#301 = CARTESIAN_POINT ( 'NONE',  ( 0.0000000000000000000, 1.000000000000000000, -2.100000000000000100 ) ) ;
#302 = ORIENTED_EDGE ( 'NONE', *, *, #242, .F. ) ;
#303 = FILL_AREA_STYLE_COLOUR ( '', #146 ) ;
#304 =( NAMED_UNIT ( * ) PLANE_ANGLE_UNIT ( ) SI_UNIT ( $, .RADIAN. ) );
#305 = CARTESIAN_POINT ( 'NONE',  ( 3.594440151122285900, 1.000000000000000000, 0.1999999999999999800 ) ) ;
#306 = CARTESIAN_POINT ( 'NONE',  ( 0.0000000000000000000, 0.0000000000000000000, 0.0000000000000000000 ) ) ;
#307 = ORIENTED_EDGE ( 'NONE', *, *, #232, .T. ) ;
#308 = ORIENTED_EDGE ( 'NONE', *, *, #197, .F. ) ;
#309 = ORIENTED_EDGE ( 'NONE', *, *, #241, .F. ) ;
#310 = ORIENTED_EDGE ( 'NONE', *, *, #193, .T. ) ;
#311 = PRODUCT_DEFINITION_SHAPE ( 'NONE', 'NONE',  #257 ) ;
#312 = ADVANCED_BREP_SHAPE_REPRESENTATION ( 'M4 Split Washer', ( #296, #258 ), #277 ) ;
#313 = CARTESIAN_POINT ( 'NONE',  ( 2.571758278209442000E-016, 1.000000000000000000, 2.100000000000000100 ) ) ;
#314 = DIRECTION ( 'NONE',  ( 0.0000000000000000000, 0.0000000000000000000, 1.000000000000000000 ) ) ;
#315 = ORIENTED_EDGE ( 'NONE', *, *, #189, .T. ) ;
#316 = CARTESIAN_POINT ( 'NONE',  ( 0.0000000000000000000, 1.000000000000000000, 0.0000000000000000000 ) ) ;
#317 = CARTESIAN_POINT ( 'NONE',  ( 3.594440151122285900, 1.000000000000000000, -0.1999999999999999800 ) ) ;
#318 = CARTESIAN_POINT ( 'NONE',  ( 2.090454496036687500, 1.000000000000000000, 0.1999999999999999800 ) ) ;
#319 = VERTEX_POINT ( 'NONE', #243 ) ;
#320 = DIRECTION ( 'NONE',  ( 1.000000000000000000, 0.0000000000000000000, 0.0000000000000000000 ) ) ;
#321 = ADVANCED_FACE ( 'NONE', ( #23 ), #134, .F. ) ;
#322 = CARTESIAN_POINT ( 'NONE',  ( 0.0000000000000000000, 0.0000000000000000000, 0.0000000000000000000 ) ) ;
#323 = SURFACE_SIDE_STYLE ('',( #8 ) ) ;
#324 =( LENGTH_UNIT ( ) NAMED_UNIT ( * ) SI_UNIT ( .MILLI., .METRE. ) );
#325 = CARTESIAN_POINT ( 'NONE',  ( 0.0000000000000000000, 1.000000000000000000, 0.0000000000000000000 ) ) ;
#326 = ORIENTED_EDGE ( 'NONE', *, *, #107, .F. ) ;
#327 = EDGE_LOOP ( 'NONE', ( #110, #268, #185, #128 ) ) ;
#328 = CARTESIAN_POINT ( 'NONE',  ( 2.000000000000000000, 0.0000000000000000000, 0.1999999999999999800 ) ) ;
#329 = ORIENTED_EDGE ( 'NONE', *, *, #241, .T. ) ;
#330 = ORIENTED_EDGE ( 'NONE', *, *, #119, .F. ) ;
#331 = VERTEX_POINT ( 'NONE', #240 ) ;
#332 = DIRECTION ( 'NONE',  ( 0.0000000000000000000, -0.0000000000000000000, 1.000000000000000000 ) ) ;
#333 = DIRECTION ( 'NONE',  ( 0.0000000000000000000, 1.000000000000000000, 0.0000000000000000000 ) ) ;
#334 = DIRECTION ( 'NONE',  ( 0.0000000000000000000, 1.000000000000000000, 0.0000000000000000000 ) ) ;
#335 = ORIENTED_EDGE ( 'NONE', *, *, #232, .F. ) ;
#336 = DIRECTION ( 'NONE',  ( -0.0000000000000000000, 0.0000000000000000000, 1.000000000000000000 ) ) ;
#337 = DIRECTION ( 'NONE',  ( 0.0000000000000000000, 1.000000000000000000, 0.0000000000000000000 ) ) ;
#338 = DIRECTION ( 'NONE',  ( 1.000000000000000000, 0.0000000000000000000, 0.0000000000000000000 ) ) ;
#339 = CARTESIAN_POINT ( 'NONE',  ( 2.000000000000000000, 0.0000000000000000000, -0.1999999999999999800 ) ) ;
#340 = ADVANCED_FACE ( 'NONE', ( #141 ), #66, .T. ) ;
#341 = DIRECTION ( 'NONE',  ( 0.0000000000000000000, 0.0000000000000000000, 1.000000000000000000 ) ) ;
#342 =( LENGTH_UNIT ( ) NAMED_UNIT ( * ) SI_UNIT ( .MILLI., .METRE. ) );
#343 =( NAMED_UNIT ( * ) SI_UNIT ( $, .STERADIAN. ) SOLID_ANGLE_UNIT ( ) );
#344 = ORIENTED_EDGE ( 'NONE', *, *, #227, .T. ) ;
#345 = DIRECTION ( 'NONE',  ( 0.0000000000000000000, 0.0000000000000000000, -1.000000000000000000 ) ) ;
#346 = DIRECTION ( 'NONE',  ( 1.000000000000000000, 0.0000000000000000000, 0.0000000000000000000 ) ) ;
ENDSEC;
END-ISO-10303-21;
