ISO-10303-21;
HEADER;
FILE_DESCRIPTION (( 'STEP AP214' ),
    '1' );
FILE_NAME ('D4 Teflon tube.step',
    '2018-06-21T12:57:48',
    ( 'User' ),
    ( 'china' ),
    'SwSTEP 2.0',
    'SolidWorks 2016',
    '' );
FILE_SCHEMA (( 'AUTOMOTIVE_DESIGN' ));
ENDSEC;

DATA;
#1 = CARTESIAN_POINT ( 'NONE',  ( 0.0000000000000000000, 50.00000000000000000, 0.0000000000000000000 ) ) ;
#2 = DIRECTION ( 'NONE',  ( 0.0000000000000000000, 1.000000000000000000, 0.0000000000000000000 ) ) ;
#3 = ADVANCED_FACE ( 'NONE', ( #207 ), #38, .T. ) ;
#4 = DIRECTION ( 'NONE',  ( -0.0000000000000000000, -1.000000000000000000, -0.0000000000000000000 ) ) ;
#5 = CARTESIAN_POINT ( 'NONE',  ( 0.0000000000000000000, 0.0000000000000000000, 0.0000000000000000000 ) ) ;
#6 = DIRECTION ( 'NONE',  ( -0.0000000000000000000, -1.000000000000000000, -0.0000000000000000000 ) ) ;
#7 = CARTESIAN_POINT ( 'NONE',  ( 0.0000000000000000000, 50.00000000000000000, 0.0000000000000000000 ) ) ;
#8 = DIRECTION ( 'NONE',  ( 0.0000000000000000000, -0.0000000000000000000, 1.000000000000000000 ) ) ;
#9 = APPLICATION_CONTEXT ( 'automotive_design' ) ;
#10 = AXIS2_PLACEMENT_3D ( 'NONE', #7, #30, #136 ) ;
#11 = ORIENTED_EDGE ( 'NONE', *, *, #188, .F. ) ;
#12 = VECTOR ( 'NONE', #6, 1000.000000000000000 ) ;
#13 = CARTESIAN_POINT ( 'NONE',  ( 0.0000000000000000000, 50.00000000000000000, 0.0000000000000000000 ) ) ;
#14 = CARTESIAN_POINT ( 'NONE',  ( 0.0000000000000000000, 50.00000000000000000, -1.000000000000000000 ) ) ;
#15 = CARTESIAN_POINT ( 'NONE',  ( 0.0000000000000000000, 0.0000000000000000000, -2.000000000000000000 ) ) ;
#16 = CARTESIAN_POINT ( 'NONE',  ( 2.449293598294706400E-016, 50.00000000000000000, 2.000000000000000000 ) ) ;
#17 = DIRECTION ( 'NONE',  ( 0.0000000000000000000, 0.0000000000000000000, -1.000000000000000000 ) ) ;
#18 = DIRECTION ( 'NONE',  ( -0.0000000000000000000, -1.000000000000000000, -0.0000000000000000000 ) ) ;
#19 = VECTOR ( 'NONE', #4, 1000.000000000000000 ) ;
#20 = DIRECTION ( 'NONE',  ( 0.0000000000000000000, 0.0000000000000000000, -1.000000000000000000 ) ) ;
#21 = DIRECTION ( 'NONE',  ( -0.0000000000000000000, -1.000000000000000000, -0.0000000000000000000 ) ) ;
#22 = ORIENTED_EDGE ( 'NONE', *, *, #192, .F. ) ;
#23 = ORIENTED_EDGE ( 'NONE', *, *, #186, .F. ) ;
#24 = MANIFOLD_SOLID_BREP ( 'Í¹Ì¨-À­Éì1', #198 ) ;
#25 = ADVANCED_FACE ( 'NONE', ( #76, #39 ), #178, .T. ) ;
#26 = PRODUCT_DEFINITION_CONTEXT ( 'detailed design', #209, 'design' ) ;
#27 = FILL_AREA_STYLE_COLOUR ( '', #213 ) ;
#28 = DIRECTION ( 'NONE',  ( 0.0000000000000000000, 1.000000000000000000, 0.0000000000000000000 ) ) ;
#29 = CIRCLE ( 'NONE', #133, 1.000000000000000000 ) ;
#30 = DIRECTION ( 'NONE',  ( 0.0000000000000000000, 1.000000000000000000, 0.0000000000000000000 ) ) ;
#31 = CARTESIAN_POINT ( 'NONE',  ( 0.0000000000000000000, 50.00000000000000000, 0.0000000000000000000 ) ) ;
#32 = SURFACE_SIDE_STYLE ('',( #169 ) ) ;
#33 = EDGE_LOOP ( 'NONE', ( #11, #123, #100, #64 ) ) ;
#34 = CARTESIAN_POINT ( 'NONE',  ( 0.0000000000000000000, 50.00000000000000000, -2.000000000000000000 ) ) ;
#35 = CARTESIAN_POINT ( 'NONE',  ( 0.0000000000000000000, 0.0000000000000000000, -1.000000000000000000 ) ) ;
#36 = FACE_BOUND ( 'NONE', #80, .T. ) ;
#37 = CARTESIAN_POINT ( 'NONE',  ( 0.0000000000000000000, 50.00000000000000000, 0.0000000000000000000 ) ) ;
#38 = CYLINDRICAL_SURFACE ( 'NONE', #180, 2.000000000000000000 ) ;
#39 = FACE_BOUND ( 'NONE', #202, .T. ) ;
#40 = DIRECTION ( 'NONE',  ( 0.0000000000000000000, 0.0000000000000000000, -1.000000000000000000 ) ) ;
#41 = CARTESIAN_POINT ( 'NONE',  ( 0.0000000000000000000, 50.00000000000000000, 0.0000000000000000000 ) ) ;
#42 = VERTEX_POINT ( 'NONE', #139 ) ;
#43 = CARTESIAN_POINT ( 'NONE',  ( 2.449293598294706400E-016, 0.0000000000000000000, 2.000000000000000000 ) ) ;
#44 = CARTESIAN_POINT ( 'NONE',  ( 0.0000000000000000000, 0.0000000000000000000, 0.0000000000000000000 ) ) ;
#45 = ORIENTED_EDGE ( 'NONE', *, *, #186, .T. ) ;
#46 = DIRECTION ( 'NONE',  ( -0.0000000000000000000, -1.000000000000000000, -0.0000000000000000000 ) ) ;
#47 =( LENGTH_UNIT ( ) NAMED_UNIT ( * ) SI_UNIT ( .MILLI., .METRE. ) );
#48 = EDGE_LOOP ( 'NONE', ( #166, #104 ) ) ;
#49 = DIRECTION ( 'NONE',  ( 0.0000000000000000000, 1.000000000000000000, 0.0000000000000000000 ) ) ;
#50 = VERTEX_POINT ( 'NONE', #14 ) ;
#51 = CARTESIAN_POINT ( 'NONE',  ( 0.0000000000000000000, 0.0000000000000000000, 0.0000000000000000000 ) ) ;
#52 = PLANE ( 'NONE',  #147 ) ;
#53 = DIRECTION ( 'NONE',  ( 0.0000000000000000000, -0.0000000000000000000, 1.000000000000000000 ) ) ;
#54 = EDGE_LOOP ( 'NONE', ( #83, #78, #108, #179 ) ) ;
#55 = LINE ( 'NONE', #117, #91 ) ;
#56 = VERTEX_POINT ( 'NONE', #15 ) ;
#57 = DIRECTION ( 'NONE',  ( 0.0000000000000000000, 0.0000000000000000000, 1.000000000000000000 ) ) ;
#58 = DIRECTION ( 'NONE',  ( 0.0000000000000000000, 0.0000000000000000000, 1.000000000000000000 ) ) ;
#59 = DIRECTION ( 'NONE',  ( 0.0000000000000000000, 1.000000000000000000, 0.0000000000000000000 ) ) ;
#60 =( NAMED_UNIT ( * ) SI_UNIT ( $, .STERADIAN. ) SOLID_ANGLE_UNIT ( ) );
#61 = VERTEX_POINT ( 'NONE', #16 ) ;
#62 = VERTEX_POINT ( 'NONE', #145 ) ;
#63 = LINE ( 'NONE', #156, #94 ) ;
#64 = ORIENTED_EDGE ( 'NONE', *, *, #184, .T. ) ;
#65 = COLOUR_RGB ( '',1.000000000000000000, 1.000000000000000000, 1.000000000000000000 ) ;
#66 = ADVANCED_BREP_SHAPE_REPRESENTATION ( 'D4 Teflon tube', ( #24, #106 ), #161 ) ;
#67 = CYLINDRICAL_SURFACE ( 'NONE', #153, 1.000000000000000000 ) ;
#68 = EDGE_LOOP ( 'NONE', ( #95, #128 ) ) ;
#69 = ORIENTED_EDGE ( 'NONE', *, *, #185, .T. ) ;
#70 = FACE_OUTER_BOUND ( 'NONE', #54, .T. ) ;
#71 = ADVANCED_FACE ( 'NONE', ( #206 ), #204, .F. ) ;
#72 = DIRECTION ( 'NONE',  ( -0.0000000000000000000, -1.000000000000000000, -0.0000000000000000000 ) ) ;
#73 =( NAMED_UNIT ( * ) PLANE_ANGLE_UNIT ( ) SI_UNIT ( $, .RADIAN. ) );
#74 = SURFACE_STYLE_FILL_AREA ( #181 ) ;
#75 = DIRECTION ( 'NONE',  ( 0.0000000000000000000, 0.0000000000000000000, 1.000000000000000000 ) ) ;
#76 = FACE_OUTER_BOUND ( 'NONE', #48, .T. ) ;
#77 = PRODUCT ( 'D4 Teflon tube', 'D4 Teflon tube', '', ( #86 ) ) ;
#78 = ORIENTED_EDGE ( 'NONE', *, *, #188, .T. ) ;
#79 = VERTEX_POINT ( 'NONE', #34 ) ;
#80 = EDGE_LOOP ( 'NONE', ( #45, #69 ) ) ;
#81 = AXIS2_PLACEMENT_3D ( 'NONE', #31, #96, #57 ) ;
#82 = VERTEX_POINT ( 'NONE', #35 ) ;
#83 = ORIENTED_EDGE ( 'NONE', *, *, #201, .F. ) ;
#84 = ADVANCED_FACE ( 'NONE', ( #70 ), #102, .T. ) ;
#85 = EDGE_LOOP ( 'NONE', ( #175, #140, #23, #22 ) ) ;
#86 = PRODUCT_CONTEXT ( 'NONE', #9, 'mechanical' ) ;
#87 = PRODUCT_RELATED_PRODUCT_CATEGORY ( 'part', '', ( #77 ) ) ;
#88 = UNCERTAINTY_MEASURE_WITH_UNIT (LENGTH_MEASURE( 1.000000000000000100E-005 ), #47, 'distance_accuracy_value', 'NONE');
#89 = PRODUCT_DEFINITION_FORMATION_WITH_SPECIFIED_SOURCE ( 'ÈÎºÎ', '', #77, .NOT_KNOWN. ) ;
#90 = CIRCLE ( 'NONE', #10, 1.000000000000000000 ) ;
#91 = VECTOR ( 'NONE', #72, 1000.000000000000000 ) ;
#92 = PRODUCT_DEFINITION ( 'Î´Öª', '', #89, #26 ) ;
#93 = DIRECTION ( 'NONE',  ( 0.0000000000000000000, 0.0000000000000000000, 1.000000000000000000 ) ) ;
#94 = VECTOR ( 'NONE', #118, 1000.000000000000000 ) ;
#95 = ORIENTED_EDGE ( 'NONE', *, *, #184, .F. ) ;
#96 = DIRECTION ( 'NONE',  ( 0.0000000000000000000, 1.000000000000000000, 0.0000000000000000000 ) ) ;
#97 = CARTESIAN_POINT ( 'NONE',  ( 0.0000000000000000000, 0.0000000000000000000, 0.0000000000000000000 ) ) ;
#98 = LINE ( 'NONE', #214, #19 ) ;
#99 = DIRECTION ( 'NONE',  ( 0.0000000000000000000, 0.0000000000000000000, 1.000000000000000000 ) ) ;
#100 = ORIENTED_EDGE ( 'NONE', *, *, #205, .T. ) ;
#101 = APPLICATION_PROTOCOL_DEFINITION ( 'draft international standard', 'automotive_design', 1998, #209 ) ;
#102 = CYLINDRICAL_SURFACE ( 'NONE', #159, 2.000000000000000000 ) ;
#103 = CIRCLE ( 'NONE', #164, 2.000000000000000000 ) ;
#104 = ORIENTED_EDGE ( 'NONE', *, *, #201, .T. ) ;
#105 = ORIENTED_EDGE ( 'NONE', *, *, #203, .T. ) ;
#106 = AXIS2_PLACEMENT_3D ( 'NONE', #44, #75, #197 ) ;
#107 = FACE_OUTER_BOUND ( 'NONE', #68, .T. ) ;
#108 = ORIENTED_EDGE ( 'NONE', *, *, #199, .T. ) ;
#109 = PRESENTATION_STYLE_ASSIGNMENT (( #124 ) ) ;
#110 = ORIENTED_EDGE ( 'NONE', *, *, #191, .F. ) ;
#111 =( GEOMETRIC_REPRESENTATION_CONTEXT ( 3 ) GLOBAL_UNCERTAINTY_ASSIGNED_CONTEXT ( ( #88 ) ) GLOBAL_UNIT_ASSIGNED_CONTEXT ( ( #47, #158, #60 ) ) REPRESENTATION_CONTEXT ( 'NONE', 'WORKASPACE' ) );
#112 = PRODUCT_DEFINITION_SHAPE ( 'NONE', 'NONE',  #92 ) ;
#113 = MECHANICAL_DESIGN_GEOMETRIC_PRESENTATION_REPRESENTATION (  '', ( #121 ), #111 ) ;
#114 = DIRECTION ( 'NONE',  ( 0.0000000000000000000, 1.000000000000000000, 0.0000000000000000000 ) ) ;
#115 = PRESENTATION_LAYER_ASSIGNMENT (  '', '', ( #121 ) ) ;
#116 = DIRECTION ( 'NONE',  ( 0.0000000000000000000, 0.0000000000000000000, 1.000000000000000000 ) ) ;
#117 = CARTESIAN_POINT ( 'NONE',  ( 0.0000000000000000000, 50.00000000000000000, -2.000000000000000000 ) ) ;
#118 = DIRECTION ( 'NONE',  ( -0.0000000000000000000, -1.000000000000000000, -0.0000000000000000000 ) ) ;
#119 = ORIENTED_EDGE ( 'NONE', *, *, #203, .F. ) ;
#120 = FILL_AREA_STYLE ('',( #27 ) ) ;
#121 = STYLED_ITEM ( 'NONE', ( #122 ), #66 ) ;
#122 = PRESENTATION_STYLE_ASSIGNMENT (( #138 ) ) ;
#123 = ORIENTED_EDGE ( 'NONE', *, *, #190, .F. ) ;
#124 = SURFACE_STYLE_USAGE ( .BOTH. , #167 ) ;
#125 = AXIS2_PLACEMENT_3D ( 'NONE', #135, #59, #99 ) ;
#126 =( LENGTH_UNIT ( ) NAMED_UNIT ( * ) SI_UNIT ( .MILLI., .METRE. ) );
#127 =( NAMED_UNIT ( * ) SI_UNIT ( $, .STERADIAN. ) SOLID_ANGLE_UNIT ( ) );
#128 = ORIENTED_EDGE ( 'NONE', *, *, #199, .F. ) ;
#129 = DIRECTION ( 'NONE',  ( 0.0000000000000000000, 1.000000000000000000, 0.0000000000000000000 ) ) ;
#130 = FILL_AREA_STYLE_COLOUR ( '', #65 ) ;
#131 = AXIS2_PLACEMENT_3D ( 'NONE', #173, #155, #157 ) ;
#132 = AXIS2_PLACEMENT_3D ( 'NONE', #172, #174, #193 ) ;
#133 = AXIS2_PLACEMENT_3D ( 'NONE', #97, #114, #116 ) ;
#134 = AXIS2_PLACEMENT_3D ( 'NONE', #5, #28, #58 ) ;
#135 = CARTESIAN_POINT ( 'NONE',  ( 0.0000000000000000000, 0.0000000000000000000, 0.0000000000000000000 ) ) ;
#136 = DIRECTION ( 'NONE',  ( 0.0000000000000000000, 0.0000000000000000000, 1.000000000000000000 ) ) ;
#137 = CIRCLE ( 'NONE', #81, 2.000000000000000000 ) ;
#138 = SURFACE_STYLE_USAGE ( .BOTH. , #32 ) ;
#139 = CARTESIAN_POINT ( 'NONE',  ( 1.224646799147353200E-016, 50.00000000000000000, 1.000000000000000000 ) ) ;
#140 = ORIENTED_EDGE ( 'NONE', *, *, #191, .T. ) ;
#141 = CIRCLE ( 'NONE', #131, 1.000000000000000000 ) ;
#142 = DIRECTION ( 'NONE',  ( 0.0000000000000000000, 0.0000000000000000000, -1.000000000000000000 ) ) ;
#143 = CARTESIAN_POINT ( 'NONE',  ( 0.0000000000000000000, 50.00000000000000000, 0.0000000000000000000 ) ) ;
#144 = ORIENTED_EDGE ( 'NONE', *, *, #185, .F. ) ;
#145 = CARTESIAN_POINT ( 'NONE',  ( 1.224646799147353200E-016, 0.0000000000000000000, 1.000000000000000000 ) ) ;
#146 = DIRECTION ( 'NONE',  ( -0.0000000000000000000, -1.000000000000000000, -0.0000000000000000000 ) ) ;
#147 = AXIS2_PLACEMENT_3D ( 'NONE', #51, #49, #53 ) ;
#148 =( NAMED_UNIT ( * ) PLANE_ANGLE_UNIT ( ) SI_UNIT ( $, .RADIAN. ) );
#149 = CIRCLE ( 'NONE', #132, 2.000000000000000000 ) ;
#150 = VERTEX_POINT ( 'NONE', #43 ) ;
#151 = ADVANCED_FACE ( 'NONE', ( #152 ), #67, .F. ) ;
#152 = FACE_OUTER_BOUND ( 'NONE', #85, .T. ) ;
#153 = AXIS2_PLACEMENT_3D ( 'NONE', #41, #46, #40 ) ;
#154 = CARTESIAN_POINT ( 'NONE',  ( 0.0000000000000000000, 50.00000000000000000, -1.000000000000000000 ) ) ;
#155 = DIRECTION ( 'NONE',  ( 0.0000000000000000000, 1.000000000000000000, 0.0000000000000000000 ) ) ;
#156 = CARTESIAN_POINT ( 'NONE',  ( 1.224646799147353200E-016, 50.00000000000000000, 1.000000000000000000 ) ) ;
#157 = DIRECTION ( 'NONE',  ( 0.0000000000000000000, 0.0000000000000000000, 1.000000000000000000 ) ) ;
#158 =( NAMED_UNIT ( * ) PLANE_ANGLE_UNIT ( ) SI_UNIT ( $, .RADIAN. ) );
#159 = AXIS2_PLACEMENT_3D ( 'NONE', #37, #21, #20 ) ;
#160 = AXIS2_PLACEMENT_3D ( 'NONE', #13, #18, #17 ) ;
#161 =( GEOMETRIC_REPRESENTATION_CONTEXT ( 3 ) GLOBAL_UNCERTAINTY_ASSIGNED_CONTEXT ( ( #170 ) ) GLOBAL_UNIT_ASSIGNED_CONTEXT ( ( #177, #73, #196 ) ) REPRESENTATION_CONTEXT ( 'NONE', 'WORKASPACE' ) );
#162 = AXIS2_PLACEMENT_3D ( 'NONE', #1, #2, #8 ) ;
#163 = UNCERTAINTY_MEASURE_WITH_UNIT (LENGTH_MEASURE( 1.000000000000000100E-005 ), #126, 'distance_accuracy_value', 'NONE');
#164 = AXIS2_PLACEMENT_3D ( 'NONE', #165, #129, #93 ) ;
#165 = CARTESIAN_POINT ( 'NONE',  ( 0.0000000000000000000, 0.0000000000000000000, 0.0000000000000000000 ) ) ;
#166 = ORIENTED_EDGE ( 'NONE', *, *, #190, .T. ) ;
#167 = SURFACE_SIDE_STYLE ('',( #74 ) ) ;
#168 = ADVANCED_FACE ( 'NONE', ( #107, #36 ), #52, .F. ) ;
#169 = SURFACE_STYLE_FILL_AREA ( #120 ) ;
#170 = UNCERTAINTY_MEASURE_WITH_UNIT (LENGTH_MEASURE( 1.000000000000000100E-005 ), #177, 'distance_accuracy_value', 'NONE');
#171 =( GEOMETRIC_REPRESENTATION_CONTEXT ( 3 ) GLOBAL_UNCERTAINTY_ASSIGNED_CONTEXT ( ( #163 ) ) GLOBAL_UNIT_ASSIGNED_CONTEXT ( ( #126, #148, #127 ) ) REPRESENTATION_CONTEXT ( 'NONE', 'WORKASPACE' ) );
#172 = CARTESIAN_POINT ( 'NONE',  ( 0.0000000000000000000, 50.00000000000000000, 0.0000000000000000000 ) ) ;
#173 = CARTESIAN_POINT ( 'NONE',  ( 0.0000000000000000000, 50.00000000000000000, 0.0000000000000000000 ) ) ;
#174 = DIRECTION ( 'NONE',  ( 0.0000000000000000000, 1.000000000000000000, 0.0000000000000000000 ) ) ;
#175 = ORIENTED_EDGE ( 'NONE', *, *, #195, .T. ) ;
#176 = MECHANICAL_DESIGN_GEOMETRIC_PRESENTATION_REPRESENTATION (  '', ( #182 ), #171 ) ;
#177 =( LENGTH_UNIT ( ) NAMED_UNIT ( * ) SI_UNIT ( .MILLI., .METRE. ) );
#178 = PLANE ( 'NONE',  #162 ) ;
#179 = ORIENTED_EDGE ( 'NONE', *, *, #205, .F. ) ;
#180 = AXIS2_PLACEMENT_3D ( 'NONE', #143, #146, #142 ) ;
#181 = FILL_AREA_STYLE ('',( #130 ) ) ;
#182 = STYLED_ITEM ( 'NONE', ( #109 ), #24 ) ;
#183 = PRESENTATION_LAYER_ASSIGNMENT (  '', '', ( #182 ) ) ;
#184 = EDGE_CURVE ( 'NONE', #56, #150, #103, .T. ) ;
#185 = EDGE_CURVE ( 'NONE', #62, #82, #200, .T. ) ;
#186 = EDGE_CURVE ( 'NONE', #82, #62, #29, .T. ) ;
#187 = EDGE_LOOP ( 'NONE', ( #110, #105, #211, #144 ) ) ;
#188 = EDGE_CURVE ( 'NONE', #61, #150, #98, .T. ) ;
#189 = CIRCLE ( 'NONE', #125, 2.000000000000000000 ) ;
#190 = EDGE_CURVE ( 'NONE', #79, #61, #149, .T. ) ;
#191 = EDGE_CURVE ( 'NONE', #42, #62, #63, .T. ) ;
#192 = EDGE_CURVE ( 'NONE', #50, #82, #194, .T. ) ;
#193 = DIRECTION ( 'NONE',  ( 0.0000000000000000000, 0.0000000000000000000, 1.000000000000000000 ) ) ;
#194 = LINE ( 'NONE', #154, #12 ) ;
#195 = EDGE_CURVE ( 'NONE', #50, #42, #141, .T. ) ;
#196 =( NAMED_UNIT ( * ) SI_UNIT ( $, .STERADIAN. ) SOLID_ANGLE_UNIT ( ) );
#197 = DIRECTION ( 'NONE',  ( 1.000000000000000000, 0.0000000000000000000, 0.0000000000000000000 ) ) ;
#198 = CLOSED_SHELL ( 'NONE', ( #151, #84, #25, #168, #3, #71 ) ) ;
#199 = EDGE_CURVE ( 'NONE', #150, #56, #189, .T. ) ;
#200 = CIRCLE ( 'NONE', #134, 1.000000000000000000 ) ;
#201 = EDGE_CURVE ( 'NONE', #61, #79, #137, .T. ) ;
#202 = EDGE_LOOP ( 'NONE', ( #212, #119 ) ) ;
#203 = EDGE_CURVE ( 'NONE', #42, #50, #90, .T. ) ;
#204 = CYLINDRICAL_SURFACE ( 'NONE', #160, 1.000000000000000000 ) ;
#205 = EDGE_CURVE ( 'NONE', #79, #56, #55, .T. ) ;
#206 = FACE_OUTER_BOUND ( 'NONE', #187, .T. ) ;
#207 = FACE_OUTER_BOUND ( 'NONE', #33, .T. ) ;
#208 = APPLICATION_PROTOCOL_DEFINITION ( 'draft international standard', 'automotive_design', 1998, #9 ) ;
#209 = APPLICATION_CONTEXT ( 'automotive_design' ) ;
#210 = SHAPE_DEFINITION_REPRESENTATION ( #112, #66 ) ;
#211 = ORIENTED_EDGE ( 'NONE', *, *, #192, .T. ) ;
#212 = ORIENTED_EDGE ( 'NONE', *, *, #195, .F. ) ;
#213 = COLOUR_RGB ( '',1.000000000000000000, 1.000000000000000000, 1.000000000000000000 ) ;
#214 = CARTESIAN_POINT ( 'NONE',  ( 2.449293598294706400E-016, 50.00000000000000000, 2.000000000000000000 ) ) ;
ENDSEC;
END-ISO-10303-21;
