ISO-10303-21;
HEADER;
FILE_DESCRIPTION (( 'STEP AP214' ),
    '1' );
FILE_NAME ('Copper cover.step',
    '2018-06-21T12:57:47',
    ( 'User' ),
    ( 'china' ),
    'SwSTEP 2.0',
    'SolidWorks 2016',
    '' );
FILE_SCHEMA (( 'AUTOMOTIVE_DESIGN' ));
ENDSEC;

DATA;
#1 = DIRECTION ( 'NONE',  ( 1.000000000000000000, 0.0000000000000000000, 0.0000000000000000000 ) ) ;
#2 = CARTESIAN_POINT ( 'NONE',  ( 0.0000000000000000000, 0.0000000000000000000, 0.0000000000000000000 ) ) ;
#3 = PRODUCT_CONTEXT ( 'NONE', #118, 'mechanical' ) ;
#4 = ORIENTED_EDGE ( 'NONE', *, *, #110, .T. ) ;
#5 = ADVANCED_BREP_SHAPE_REPRESENTATION ( 'Copper cover', ( #79, #123 ), #147 ) ;
#6 = ORIENTED_EDGE ( 'NONE', *, *, #146, .T. ) ;
#7 = CARTESIAN_POINT ( 'NONE',  ( 0.0000000000000000000, 0.0000000000000000000, 6.000000000000000000 ) ) ;
#8 = ADVANCED_FACE ( 'NONE', ( #143 ), #32, .F. ) ;
#9 = VERTEX_POINT ( 'NONE', #115 ) ;
#10 = EDGE_CURVE ( 'NONE', #183, #126, #157, .T. ) ;
#11 = ORIENTED_EDGE ( 'NONE', *, *, #10, .T. ) ;
#12 = FACE_OUTER_BOUND ( 'NONE', #107, .T. ) ;
#13 = CARTESIAN_POINT ( 'NONE',  ( -3.600000000000000100, 0.0000000000000000000, 0.0000000000000000000 ) ) ;
#14 = DIRECTION ( 'NONE',  ( 1.000000000000000000, 0.0000000000000000000, 0.0000000000000000000 ) ) ;
#15 = ORIENTED_EDGE ( 'NONE', *, *, #207, .T. ) ;
#16 = CIRCLE ( 'NONE', #158, 3.600000000000000100 ) ;
#17 = DIRECTION ( 'NONE',  ( -0.0000000000000000000, -0.0000000000000000000, -1.000000000000000000 ) ) ;
#18 = DIRECTION ( 'NONE',  ( -0.0000000000000000000, -0.0000000000000000000, -1.000000000000000000 ) ) ;
#19 = APPLICATION_PROTOCOL_DEFINITION ( 'draft international standard', 'automotive_design', 1998, #105 ) ;
#20 = UNCERTAINTY_MEASURE_WITH_UNIT (LENGTH_MEASURE( 1.000000000000000100E-005 ), #70, 'distance_accuracy_value', 'NONE');
#21 = DIRECTION ( 'NONE',  ( -0.0000000000000000000, -0.0000000000000000000, -1.000000000000000000 ) ) ;
#22 = VERTEX_POINT ( 'NONE', #85 ) ;
#23 = CIRCLE ( 'NONE', #161, 3.600000000000000100 ) ;
#24 = ORIENTED_EDGE ( 'NONE', *, *, #201, .F. ) ;
#25 = EDGE_LOOP ( 'NONE', ( #35, #42, #4, #24 ) ) ;
#26 = PRODUCT_DEFINITION_CONTEXT ( 'detailed design', #105, 'design' ) ;
#27 = CARTESIAN_POINT ( 'NONE',  ( 4.000000000000000000, 4.898587196589412800E-016, 6.000000000000000000 ) ) ;
#28 = UNCERTAINTY_MEASURE_WITH_UNIT (LENGTH_MEASURE( 1.000000000000000100E-005 ), #156, 'distance_accuracy_value', 'NONE');
#29 = EDGE_LOOP ( 'NONE', ( #78, #96 ) ) ;
#30 = DIRECTION ( 'NONE',  ( 0.0000000000000000000, 0.0000000000000000000, 1.000000000000000000 ) ) ;
#31 = FILL_AREA_STYLE ('',( #90 ) ) ;
#32 = CYLINDRICAL_SURFACE ( 'NONE', #185, 3.600000000000000100 ) ;
#33 = DIRECTION ( 'NONE',  ( 0.0000000000000000000, 0.0000000000000000000, 1.000000000000000000 ) ) ;
#34 = ORIENTED_EDGE ( 'NONE', *, *, #190, .F. ) ;
#35 = ORIENTED_EDGE ( 'NONE', *, *, #181, .F. ) ;
#36 = ORIENTED_EDGE ( 'NONE', *, *, #198, .F. ) ;
#37 = COLOUR_RGB ( '',1.000000000000000000, 1.000000000000000000, 1.000000000000000000 ) ;
#38 = ORIENTED_EDGE ( 'NONE', *, *, #146, .F. ) ;
#39 = VERTEX_POINT ( 'NONE', #145 ) ;
#40 = CARTESIAN_POINT ( 'NONE',  ( 0.0000000000000000000, 0.0000000000000000000, 6.000000000000000000 ) ) ;
#41 = DIRECTION ( 'NONE',  ( 0.0000000000000000000, 0.0000000000000000000, 1.000000000000000000 ) ) ;
#42 = ORIENTED_EDGE ( 'NONE', *, *, #73, .T. ) ;
#43 = CARTESIAN_POINT ( 'NONE',  ( 0.0000000000000000000, 0.0000000000000000000, 0.0000000000000000000 ) ) ;
#44 = CLOSED_SHELL ( 'NONE', ( #8, #52, #202, #125, #140, #65 ) ) ;
#45 = VECTOR ( 'NONE', #155, 1000.000000000000000 ) ;
#46 = SURFACE_STYLE_USAGE ( .BOTH. , #136 ) ;
#47 = ORIENTED_EDGE ( 'NONE', *, *, #73, .F. ) ;
#48 = ORIENTED_EDGE ( 'NONE', *, *, #198, .T. ) ;
#49 = DIRECTION ( 'NONE',  ( -1.000000000000000000, 0.0000000000000000000, 0.0000000000000000000 ) ) ;
#50 = VERTEX_POINT ( 'NONE', #213 ) ;
#51 = LINE ( 'NONE', #195, #45 ) ;
#52 = ADVANCED_FACE ( 'NONE', ( #108 ), #106, .T. ) ;
#53 = CIRCLE ( 'NONE', #159, 4.000000000000000000 ) ;
#54 = EDGE_LOOP ( 'NONE', ( #160, #186, #120, #200 ) ) ;
#55 = SURFACE_SIDE_STYLE ('',( #98 ) ) ;
#56 = DIRECTION ( 'NONE',  ( 0.0000000000000000000, 0.0000000000000000000, 1.000000000000000000 ) ) ;
#57 = CARTESIAN_POINT ( 'NONE',  ( 0.0000000000000000000, 0.0000000000000000000, 0.0000000000000000000 ) ) ;
#58 = CIRCLE ( 'NONE', #165, 4.000000000000000000 ) ;
#59 = DIRECTION ( 'NONE',  ( 1.000000000000000000, 0.0000000000000000000, 0.0000000000000000000 ) ) ;
#60 = EDGE_LOOP ( 'NONE', ( #15, #191, #34, #111 ) ) ;
#61 = PRESENTATION_STYLE_ASSIGNMENT (( #167 ) ) ;
#62 = PLANE ( 'NONE',  #149 ) ;
#63 =( NAMED_UNIT ( * ) PLANE_ANGLE_UNIT ( ) SI_UNIT ( $, .RADIAN. ) );
#64 = ORIENTED_EDGE ( 'NONE', *, *, #190, .T. ) ;
#65 = ADVANCED_FACE ( 'NONE', ( #209 ), #192, .F. ) ;
#66 = FACE_BOUND ( 'NONE', #94, .T. ) ;
#67 = SHAPE_DEFINITION_REPRESENTATION ( #97, #5 ) ;
#68 = LINE ( 'NONE', #27, #205 ) ;
#69 = DIRECTION ( 'NONE',  ( -1.000000000000000000, 0.0000000000000000000, 0.0000000000000000000 ) ) ;
#70 =( LENGTH_UNIT ( ) NAMED_UNIT ( * ) SI_UNIT ( .MILLI., .METRE. ) );
#71 = CARTESIAN_POINT ( 'NONE',  ( 0.0000000000000000000, 0.0000000000000000000, 6.000000000000000000 ) ) ;
#72 = DIRECTION ( 'NONE',  ( 1.000000000000000000, 0.0000000000000000000, 0.0000000000000000000 ) ) ;
#73 = EDGE_CURVE ( 'NONE', #22, #50, #68, .T. ) ;
#74 =( LENGTH_UNIT ( ) NAMED_UNIT ( * ) SI_UNIT ( .MILLI., .METRE. ) );
#75 = DIRECTION ( 'NONE',  ( 1.000000000000000000, 0.0000000000000000000, -0.0000000000000000000 ) ) ;
#76 = VERTEX_POINT ( 'NONE', #112 ) ;
#77 = DIRECTION ( 'NONE',  ( 0.0000000000000000000, 0.0000000000000000000, 1.000000000000000000 ) ) ;
#78 = ORIENTED_EDGE ( 'NONE', *, *, #207, .F. ) ;
#79 = MANIFOLD_SOLID_BREP ( 'Í¹Ì¨-À­Éì1', #44 ) ;
#80 = CIRCLE ( 'NONE', #151, 3.600000000000000100 ) ;
#81 = SURFACE_STYLE_FILL_AREA ( #31 ) ;
#82 = DIRECTION ( 'NONE',  ( -0.0000000000000000000, -0.0000000000000000000, -1.000000000000000000 ) ) ;
#83 =( NAMED_UNIT ( * ) SI_UNIT ( $, .STERADIAN. ) SOLID_ANGLE_UNIT ( ) );
#84 = ORIENTED_EDGE ( 'NONE', *, *, #181, .T. ) ;
#85 = CARTESIAN_POINT ( 'NONE',  ( 4.000000000000000000, 4.898587196589412800E-016, 6.000000000000000000 ) ) ;
#86 = EDGE_LOOP ( 'NONE', ( #47, #36, #119, #6 ) ) ;
#87 = VECTOR ( 'NONE', #17, 1000.000000000000000 ) ;
#88 = DIRECTION ( 'NONE',  ( 0.0000000000000000000, 0.0000000000000000000, 1.000000000000000000 ) ) ;
#89 =( NAMED_UNIT ( * ) SI_UNIT ( $, .STERADIAN. ) SOLID_ANGLE_UNIT ( ) );
#90 = FILL_AREA_STYLE_COLOUR ( '', #37 ) ;
#91 = DIRECTION ( 'NONE',  ( 1.000000000000000000, 0.0000000000000000000, 0.0000000000000000000 ) ) ;
#92 = CARTESIAN_POINT ( 'NONE',  ( 0.0000000000000000000, 0.0000000000000000000, 0.0000000000000000000 ) ) ;
#93 = CYLINDRICAL_SURFACE ( 'NONE', #162, 4.000000000000000000 ) ;
#94 = EDGE_LOOP ( 'NONE', ( #64, #11 ) ) ;
#95 = CIRCLE ( 'NONE', #163, 4.000000000000000000 ) ;
#96 = ORIENTED_EDGE ( 'NONE', *, *, #199, .F. ) ;
#97 = PRODUCT_DEFINITION_SHAPE ( 'NONE', 'NONE',  #122 ) ;
#98 = SURFACE_STYLE_FILL_AREA ( #148 ) ;
#99 = CARTESIAN_POINT ( 'NONE',  ( 0.0000000000000000000, 0.0000000000000000000, 0.0000000000000000000 ) ) ;
#100 = DIRECTION ( 'NONE',  ( -1.000000000000000000, 0.0000000000000000000, 0.0000000000000000000 ) ) ;
#101 = DIRECTION ( 'NONE',  ( 0.0000000000000000000, 0.0000000000000000000, 1.000000000000000000 ) ) ;
#102 = CARTESIAN_POINT ( 'NONE',  ( -4.000000000000000000, 0.0000000000000000000, 6.000000000000000000 ) ) ;
#103 = APPLICATION_PROTOCOL_DEFINITION ( 'draft international standard', 'automotive_design', 1998, #118 ) ;
#104 = CARTESIAN_POINT ( 'NONE',  ( 3.600000000000000100, 4.408728476930471200E-016, 6.000000000000000000 ) ) ;
#105 = APPLICATION_CONTEXT ( 'automotive_design' ) ;
#106 = CYLINDRICAL_SURFACE ( 'NONE', #179, 4.000000000000000000 ) ;
#107 = EDGE_LOOP ( 'NONE', ( #48, #84 ) ) ;
#108 = FACE_OUTER_BOUND ( 'NONE', #25, .T. ) ;
#109 = UNCERTAINTY_MEASURE_WITH_UNIT (LENGTH_MEASURE( 1.000000000000000100E-005 ), #74, 'distance_accuracy_value', 'NONE');
#110 = EDGE_CURVE ( 'NONE', #50, #76, #176, .T. ) ;
#111 = ORIENTED_EDGE ( 'NONE', *, *, #206, .F. ) ;
#112 = CARTESIAN_POINT ( 'NONE',  ( -4.000000000000000000, 0.0000000000000000000, 0.0000000000000000000 ) ) ;
#113 = PLANE ( 'NONE',  #164 ) ;
#114 = CARTESIAN_POINT ( 'NONE',  ( 0.0000000000000000000, 0.0000000000000000000, 6.000000000000000000 ) ) ;
#115 = CARTESIAN_POINT ( 'NONE',  ( -4.000000000000000000, 0.0000000000000000000, 6.000000000000000000 ) ) ;
#116 = PRODUCT_RELATED_PRODUCT_CATEGORY ( 'part', '', ( #171 ) ) ;
#117 = CARTESIAN_POINT ( 'NONE',  ( 0.0000000000000000000, 0.0000000000000000000, 6.000000000000000000 ) ) ;
#118 = APPLICATION_CONTEXT ( 'automotive_design' ) ;
#119 = ORIENTED_EDGE ( 'NONE', *, *, #201, .T. ) ;
#120 = ORIENTED_EDGE ( 'NONE', *, *, #206, .T. ) ;
#121 = PRODUCT_DEFINITION_FORMATION_WITH_SPECIFIED_SOURCE ( 'ÈÎºÎ', '', #171, .NOT_KNOWN. ) ;
#122 = PRODUCT_DEFINITION ( 'Î´Öª', '', #121, #26 ) ;
#123 = AXIS2_PLACEMENT_3D ( 'NONE', #2, #196, #91 ) ;
#124 = LINE ( 'NONE', #104, #180 ) ;
#125 = ADVANCED_FACE ( 'NONE', ( #127, #66 ), #113, .F. ) ;
#126 = VERTEX_POINT ( 'NONE', #13 ) ;
#127 = FACE_OUTER_BOUND ( 'NONE', #128, .T. ) ;
#128 = EDGE_LOOP ( 'NONE', ( #38, #144 ) ) ;
#129 = FACE_BOUND ( 'NONE', #29, .T. ) ;
#130 = DIRECTION ( 'NONE',  ( 1.000000000000000000, 0.0000000000000000000, 0.0000000000000000000 ) ) ;
#131 =( GEOMETRIC_REPRESENTATION_CONTEXT ( 3 ) GLOBAL_UNCERTAINTY_ASSIGNED_CONTEXT ( ( #28 ) ) GLOBAL_UNIT_ASSIGNED_CONTEXT ( ( #156, #63, #175 ) ) REPRESENTATION_CONTEXT ( 'NONE', 'WORKASPACE' ) );
#132 = DIRECTION ( 'NONE',  ( -0.0000000000000000000, -0.0000000000000000000, -1.000000000000000000 ) ) ;
#133 = CARTESIAN_POINT ( 'NONE',  ( 0.0000000000000000000, 0.0000000000000000000, 0.0000000000000000000 ) ) ;
#134 = FACE_OUTER_BOUND ( 'NONE', #86, .T. ) ;
#135 = DIRECTION ( 'NONE',  ( 1.000000000000000000, 0.0000000000000000000, 0.0000000000000000000 ) ) ;
#136 = SURFACE_SIDE_STYLE ('',( #81 ) ) ;
#137 = MECHANICAL_DESIGN_GEOMETRIC_PRESENTATION_REPRESENTATION (  '', ( #142 ), #131 ) ;
#138 = VERTEX_POINT ( 'NONE', #189 ) ;
#139 = COLOUR_RGB ( '',1.000000000000000000, 1.000000000000000000, 1.000000000000000000 ) ;
#140 = ADVANCED_FACE ( 'NONE', ( #134 ), #93, .T. ) ;
#141 = PRESENTATION_LAYER_ASSIGNMENT (  '', '', ( #142 ) ) ;
#142 = STYLED_ITEM ( 'NONE', ( #211 ), #5 ) ;
#143 = FACE_OUTER_BOUND ( 'NONE', #60, .T. ) ;
#144 = ORIENTED_EDGE ( 'NONE', *, *, #110, .F. ) ;
#145 = CARTESIAN_POINT ( 'NONE',  ( -3.600000000000000100, 0.0000000000000000000, 6.000000000000000000 ) ) ;
#146 = EDGE_CURVE ( 'NONE', #76, #50, #95, .T. ) ;
#147 =( GEOMETRIC_REPRESENTATION_CONTEXT ( 3 ) GLOBAL_UNCERTAINTY_ASSIGNED_CONTEXT ( ( #109 ) ) GLOBAL_UNIT_ASSIGNED_CONTEXT ( ( #74, #194, #89 ) ) REPRESENTATION_CONTEXT ( 'NONE', 'WORKASPACE' ) );
#148 = FILL_AREA_STYLE ('',( #210 ) ) ;
#149 = AXIS2_PLACEMENT_3D ( 'NONE', #114, #174, #75 ) ;
#150 = DIRECTION ( 'NONE',  ( 1.000000000000000000, 0.0000000000000000000, 0.0000000000000000000 ) ) ;
#151 = AXIS2_PLACEMENT_3D ( 'NONE', #177, #77, #172 ) ;
#152 = CARTESIAN_POINT ( 'NONE',  ( 3.600000000000000100, 4.408728476930471200E-016, 0.0000000000000000000 ) ) ;
#153 = DIRECTION ( 'NONE',  ( -0.0000000000000000000, -0.0000000000000000000, -1.000000000000000000 ) ) ;
#154 = DIRECTION ( 'NONE',  ( 0.0000000000000000000, 0.0000000000000000000, 1.000000000000000000 ) ) ;
#155 = DIRECTION ( 'NONE',  ( -0.0000000000000000000, -0.0000000000000000000, -1.000000000000000000 ) ) ;
#156 =( LENGTH_UNIT ( ) NAMED_UNIT ( * ) SI_UNIT ( .MILLI., .METRE. ) );
#157 = CIRCLE ( 'NONE', #187, 3.600000000000000100 ) ;
#158 = AXIS2_PLACEMENT_3D ( 'NONE', #117, #30, #135 ) ;
#159 = AXIS2_PLACEMENT_3D ( 'NONE', #193, #88, #1 ) ;
#160 = ORIENTED_EDGE ( 'NONE', *, *, #204, .F. ) ;
#161 = AXIS2_PLACEMENT_3D ( 'NONE', #43, #154, #59 ) ;
#162 = AXIS2_PLACEMENT_3D ( 'NONE', #71, #212, #100 ) ;
#163 = AXIS2_PLACEMENT_3D ( 'NONE', #57, #170, #72 ) ;
#164 = AXIS2_PLACEMENT_3D ( 'NONE', #99, #56, #168 ) ;
#165 = AXIS2_PLACEMENT_3D ( 'NONE', #214, #101, #14 ) ;
#166 = AXIS2_PLACEMENT_3D ( 'NONE', #133, #41, #150 ) ;
#167 = SURFACE_STYLE_USAGE ( .BOTH. , #55 ) ;
#168 = DIRECTION ( 'NONE',  ( 1.000000000000000000, 0.0000000000000000000, -0.0000000000000000000 ) ) ;
#169 =( GEOMETRIC_REPRESENTATION_CONTEXT ( 3 ) GLOBAL_UNCERTAINTY_ASSIGNED_CONTEXT ( ( #20 ) ) GLOBAL_UNIT_ASSIGNED_CONTEXT ( ( #70, #188, #83 ) ) REPRESENTATION_CONTEXT ( 'NONE', 'WORKASPACE' ) );
#170 = DIRECTION ( 'NONE',  ( 0.0000000000000000000, 0.0000000000000000000, 1.000000000000000000 ) ) ;
#171 = PRODUCT ( 'Copper cover', 'Copper cover', '', ( #3 ) ) ;
#172 = DIRECTION ( 'NONE',  ( 1.000000000000000000, 0.0000000000000000000, 0.0000000000000000000 ) ) ;
#173 = MECHANICAL_DESIGN_GEOMETRIC_PRESENTATION_REPRESENTATION (  '', ( #197 ), #169 ) ;
#174 = DIRECTION ( 'NONE',  ( 0.0000000000000000000, 0.0000000000000000000, 1.000000000000000000 ) ) ;
#175 =( NAMED_UNIT ( * ) SI_UNIT ( $, .STERADIAN. ) SOLID_ANGLE_UNIT ( ) );
#176 = CIRCLE ( 'NONE', #166, 4.000000000000000000 ) ;
#177 = CARTESIAN_POINT ( 'NONE',  ( 0.0000000000000000000, 0.0000000000000000000, 6.000000000000000000 ) ) ;
#178 = AXIS2_PLACEMENT_3D ( 'NONE', #40, #82, #69 ) ;
#179 = AXIS2_PLACEMENT_3D ( 'NONE', #7, #21, #49 ) ;
#180 = VECTOR ( 'NONE', #18, 1000.000000000000000 ) ;
#181 = EDGE_CURVE ( 'NONE', #22, #9, #58, .T. ) ;
#182 = PRESENTATION_LAYER_ASSIGNMENT (  '', '', ( #197 ) ) ;
#183 = VERTEX_POINT ( 'NONE', #152 ) ;
#184 = LINE ( 'NONE', #102, #87 ) ;
#185 = AXIS2_PLACEMENT_3D ( 'NONE', #208, #153, #203 ) ;
#186 = ORIENTED_EDGE ( 'NONE', *, *, #199, .T. ) ;
#187 = AXIS2_PLACEMENT_3D ( 'NONE', #92, #33, #130 ) ;
#188 =( NAMED_UNIT ( * ) PLANE_ANGLE_UNIT ( ) SI_UNIT ( $, .RADIAN. ) );
#189 = CARTESIAN_POINT ( 'NONE',  ( 3.600000000000000100, 4.408728476930471200E-016, 6.000000000000000000 ) ) ;
#190 = EDGE_CURVE ( 'NONE', #126, #183, #23, .T. ) ;
#191 = ORIENTED_EDGE ( 'NONE', *, *, #204, .T. ) ;
#192 = CYLINDRICAL_SURFACE ( 'NONE', #178, 3.600000000000000100 ) ;
#193 = CARTESIAN_POINT ( 'NONE',  ( 0.0000000000000000000, 0.0000000000000000000, 6.000000000000000000 ) ) ;
#194 =( NAMED_UNIT ( * ) PLANE_ANGLE_UNIT ( ) SI_UNIT ( $, .RADIAN. ) );
#195 = CARTESIAN_POINT ( 'NONE',  ( -3.600000000000000100, 0.0000000000000000000, 6.000000000000000000 ) ) ;
#196 = DIRECTION ( 'NONE',  ( 0.0000000000000000000, 0.0000000000000000000, 1.000000000000000000 ) ) ;
#197 = STYLED_ITEM ( 'NONE', ( #61 ), #79 ) ;
#198 = EDGE_CURVE ( 'NONE', #9, #22, #53, .T. ) ;
#199 = EDGE_CURVE ( 'NONE', #138, #39, #16, .T. ) ;
#200 = ORIENTED_EDGE ( 'NONE', *, *, #10, .F. ) ;
#201 = EDGE_CURVE ( 'NONE', #9, #76, #184, .T. ) ;
#202 = ADVANCED_FACE ( 'NONE', ( #12, #129 ), #62, .T. ) ;
#203 = DIRECTION ( 'NONE',  ( -1.000000000000000000, 0.0000000000000000000, 0.0000000000000000000 ) ) ;
#204 = EDGE_CURVE ( 'NONE', #138, #183, #124, .T. ) ;
#205 = VECTOR ( 'NONE', #132, 1000.000000000000000 ) ;
#206 = EDGE_CURVE ( 'NONE', #39, #126, #51, .T. ) ;
#207 = EDGE_CURVE ( 'NONE', #39, #138, #80, .T. ) ;
#208 = CARTESIAN_POINT ( 'NONE',  ( 0.0000000000000000000, 0.0000000000000000000, 6.000000000000000000 ) ) ;
#209 = FACE_OUTER_BOUND ( 'NONE', #54, .T. ) ;
#210 = FILL_AREA_STYLE_COLOUR ( '', #139 ) ;
#211 = PRESENTATION_STYLE_ASSIGNMENT (( #46 ) ) ;
#212 = DIRECTION ( 'NONE',  ( -0.0000000000000000000, -0.0000000000000000000, -1.000000000000000000 ) ) ;
#213 = CARTESIAN_POINT ( 'NONE',  ( 4.000000000000000000, 4.898587196589412800E-016, 0.0000000000000000000 ) ) ;
#214 = CARTESIAN_POINT ( 'NONE',  ( 0.0000000000000000000, 0.0000000000000000000, 6.000000000000000000 ) ) ;
ENDSEC;
END-ISO-10303-21;
