ISO-10303-21;
HEADER;
FILE_DESCRIPTION (( 'STEP AP214' ),
    '1' );
FILE_NAME ('624U pillow.step',
    '2018-06-21T12:57:22',
    ( 'User' ),
    ( 'china' ),
    'SwSTEP 2.0',
    'SolidWorks 2016',
    '' );
FILE_SCHEMA (( 'AUTOMOTIVE_DESIGN' ));
ENDSEC;

DATA;
#1 = ORIENTED_EDGE ( 'NONE', *, *, #338, .T. ) ;
#2 = VERTEX_POINT ( 'NONE', #3 ) ;
#3 = CARTESIAN_POINT ( 'NONE',  ( 68.00000000000000000, 51.52643198464000600, -44.43000000000000000 ) ) ;
#4 = ORIENTED_EDGE ( 'NONE', *, *, #298, .F. ) ;
#5 = CARTESIAN_POINT ( 'NONE',  ( 83.50000000000000000, 50.52643198464000600, -37.31836938706000200 ) ) ;
#6 = ORIENTED_EDGE ( 'NONE', *, *, #327, .T. ) ;
#7 = VERTEX_POINT ( 'NONE', #240 ) ;
#8 = DIRECTION ( 'NONE',  ( -1.000000000000000000, 0.0000000000000000000, 0.0000000000000000000 ) ) ;
#9 = VERTEX_POINT ( 'NONE', #69 ) ;
#10 = CYLINDRICAL_SURFACE ( 'NONE', #153, 2.000000000000001800 ) ;
#11 = CARTESIAN_POINT ( 'NONE',  ( 81.00000000000000000, 53.52643198463999900, -44.43000000000000000 ) ) ;
#12 = ORIENTED_EDGE ( 'NONE', *, *, #355, .F. ) ;
#13 = ORIENTED_EDGE ( 'NONE', *, *, #340, .F. ) ;
#14 = VERTEX_POINT ( 'NONE', #49 ) ;
#15 = CARTESIAN_POINT ( 'NONE',  ( 74.50000000000000000, 52.52643198463999900, -44.43000000000000000 ) ) ;
#16 = SURFACE_STYLE_USAGE ( .BOTH. , #155 ) ;
#17 = FILL_AREA_STYLE_COLOUR ( '', #275 ) ;
#18 = DIRECTION ( 'NONE',  ( 1.000000000000000000, 0.0000000000000000000, 0.0000000000000000000 ) ) ;
#19 = ADVANCED_FACE ( 'NONE', ( #115 ), #367, .T. ) ;
#20 = VERTEX_POINT ( 'NONE', #273 ) ;
#21 = DIRECTION ( 'NONE',  ( 0.0000000000000000000, -1.000000000000000000, 0.0000000000000000000 ) ) ;
#22 = CIRCLE ( 'NONE', #168, 2.000000000000001800 ) ;
#23 = ORIENTED_EDGE ( 'NONE', *, *, #294, .T. ) ;
#24 = DIRECTION ( 'NONE',  ( 0.0000000000000000000, 1.000000000000000000, 0.0000000000000000000 ) ) ;
#25 = LINE ( 'NONE', #228, #357 ) ;
#26 = PLANE ( 'NONE',  #270 ) ;
#27 = VECTOR ( 'NONE', #189, 1000.000000000000000 ) ;
#28 = CIRCLE ( 'NONE', #251, 6.500000000000005300 ) ;
#29 = DIRECTION ( 'NONE',  ( 0.0000000000000000000, 1.000000000000000000, 0.0000000000000000000 ) ) ;
#30 = VERTEX_POINT ( 'NONE', #146 ) ;
#31 = VECTOR ( 'NONE', #152, 1000.000000000000000 ) ;
#32 = DIRECTION ( 'NONE',  ( 0.0000000000000000000, 0.0000000000000000000, 1.000000000000000000 ) ) ;
#33 =( NAMED_UNIT ( * ) PLANE_ANGLE_UNIT ( ) SI_UNIT ( $, .RADIAN. ) );
#34 = CIRCLE ( 'NONE', #202, 6.500000000000005300 ) ;
#35 = DIRECTION ( 'NONE',  ( 0.0000000000000000000, 1.000000000000000000, 0.0000000000000000000 ) ) ;
#36 = FACE_OUTER_BOUND ( 'NONE', #324, .T. ) ;
#37 = DIRECTION ( 'NONE',  ( -1.000000000000000000, 0.0000000000000000000, 0.0000000000000000000 ) ) ;
#38 = ADVANCED_FACE ( 'NONE', ( #274, #204 ), #26, .F. ) ;
#39 = DIRECTION ( 'NONE',  ( 0.0000000000000000000, 1.000000000000000000, 0.0000000000000000000 ) ) ;
#40 = EDGE_LOOP ( 'NONE', ( #284, #121, #248, #4 ) ) ;
#41 = CARTESIAN_POINT ( 'NONE',  ( 72.50000000000000000, 50.52643198464000600, -44.43000000000000000 ) ) ;
#42 = CARTESIAN_POINT ( 'NONE',  ( 68.00000000000000000, 52.52643198463999900, -44.43000000000000000 ) ) ;
#43 = SURFACE_SIDE_STYLE ('',( #174 ) ) ;
#44 = FACE_OUTER_BOUND ( 'NONE', #47, .T. ) ;
#45 = TOROIDAL_SURFACE ( 'NONE', #234, 6.500000000000000000, 1.000000000000000000 ) ;
#46 = CIRCLE ( 'NONE', #229, 1.000000000000000900 ) ;
#47 = EDGE_LOOP ( 'NONE', ( #243, #101, #88, #79 ) ) ;
#48 = ORIENTED_EDGE ( 'NONE', *, *, #355, .T. ) ;
#49 = CARTESIAN_POINT ( 'NONE',  ( 68.00000000000000000, 50.52643198464000600, -44.43000000000000000 ) ) ;
#50 = DIRECTION ( 'NONE',  ( 0.0000000000000000000, 1.000000000000000000, 1.421085471520000200E-014 ) ) ;
#51 = DIRECTION ( 'NONE',  ( 0.0000000000000000000, 0.0000000000000000000, -1.000000000000000000 ) ) ;
#52 = TOROIDAL_SURFACE ( 'NONE', #265, 6.500000000000000000, 1.000000000000000000 ) ;
#53 = CARTESIAN_POINT ( 'NONE',  ( 74.50000000000000000, 51.52643198464000600, -44.43000000000000000 ) ) ;
#54 = DIRECTION ( 'NONE',  ( -1.000000000000000000, 0.0000000000000000000, 0.0000000000000000000 ) ) ;
#55 = CARTESIAN_POINT ( 'NONE',  ( 74.50000000000000000, 50.02643198464000600, -44.43000000000000000 ) ) ;
#56 = DIRECTION ( 'NONE',  ( 0.0000000000000000000, 0.0000000000000000000, -1.000000000000000000 ) ) ;
#57 = VERTEX_POINT ( 'NONE', #96 ) ;
#58 = DIRECTION ( 'NONE',  ( 0.0000000000000000000, 1.000000000000000000, 0.0000000000000000000 ) ) ;
#59 = ADVANCED_FACE ( 'NONE', ( #281 ), #52, .F. ) ;
#60 = DIRECTION ( 'NONE',  ( 0.0000000000000000000, 1.000000000000000000, 0.0000000000000000000 ) ) ;
#61 =( LENGTH_UNIT ( ) NAMED_UNIT ( * ) SI_UNIT ( .MILLI., .METRE. ) );
#62 = ORIENTED_EDGE ( 'NONE', *, *, #300, .F. ) ;
#63 = CARTESIAN_POINT ( 'NONE',  ( 74.50000000000000000, 54.52643198463999900, -44.43000000000000000 ) ) ;
#64 = ORIENTED_EDGE ( 'NONE', *, *, #294, .F. ) ;
#65 = ORIENTED_EDGE ( 'NONE', *, *, #313, .F. ) ;
#66 = EDGE_LOOP ( 'NONE', ( #100, #206, #89, #261 ) ) ;
#67 = CIRCLE ( 'NONE', #157, 2.000000000000001800 ) ;
#68 = ORIENTED_EDGE ( 'NONE', *, *, #306, .T. ) ;
#69 = CARTESIAN_POINT ( 'NONE',  ( 81.00000000000000000, 54.52643198463999900, -44.43000000000000000 ) ) ;
#70 = EDGE_LOOP ( 'NONE', ( #72, #214, #64, #6 ) ) ;
#71 = CARTESIAN_POINT ( 'NONE',  ( 74.50000000000000000, 50.02643198464000600, -44.43000000000000000 ) ) ;
#72 = ORIENTED_EDGE ( 'NONE', *, *, #312, .F. ) ;
#73 = ADVANCED_FACE ( 'NONE', ( #198 ), #173, .T. ) ;
#74 = CARTESIAN_POINT ( 'NONE',  ( 74.50000000000000000, 54.52643198463999900, -44.43000000000000000 ) ) ;
#75 = PRODUCT ( '624U pillow', '624U pillow', '', ( #283 ) ) ;
#76 = CARTESIAN_POINT ( 'NONE',  ( 74.50000000000000000, 52.52643198463999900, -44.43000000000000000 ) ) ;
#77 = VECTOR ( 'NONE', #103, 1000.000000000000000 ) ;
#78 = CARTESIAN_POINT ( 'NONE',  ( 68.00000000000000000, 53.52643198463999900, -44.43000000000000000 ) ) ;
#79 = ORIENTED_EDGE ( 'NONE', *, *, #300, .T. ) ;
#80 = ORIENTED_EDGE ( 'NONE', *, *, #339, .T. ) ;
#81 = DIRECTION ( 'NONE',  ( 1.000000000000000000, 0.0000000000000000000, 0.0000000000000000000 ) ) ;
#82 = DIRECTION ( 'NONE',  ( 0.0000000000000000000, 1.000000000000000000, 0.0000000000000000000 ) ) ;
#83 = DIRECTION ( 'NONE',  ( 1.000000000000000000, 0.0000000000000000000, 0.0000000000000000000 ) ) ;
#84 = CARTESIAN_POINT ( 'NONE',  ( 74.50000000000000000, 54.52643198463999900, -44.43000000000000000 ) ) ;
#85 = DIRECTION ( 'NONE',  ( 0.0000000000000000000, 1.000000000000000000, 0.0000000000000000000 ) ) ;
#86 = DIRECTION ( 'NONE',  ( 0.0000000000000000000, 1.000000000000000000, 0.0000000000000000000 ) ) ;
#87 = PRESENTATION_STYLE_ASSIGNMENT (( #232 ) ) ;
#88 = ORIENTED_EDGE ( 'NONE', *, *, #297, .F. ) ;
#89 = ORIENTED_EDGE ( 'NONE', *, *, #304, .F. ) ;
#90 = FILL_AREA_STYLE_COLOUR ( '', #343 ) ;
#91 = CIRCLE ( 'NONE', #165, 5.499999999999998200 ) ;
#92 =( NAMED_UNIT ( * ) SI_UNIT ( $, .STERADIAN. ) SOLID_ANGLE_UNIT ( ) );
#93 = CYLINDRICAL_SURFACE ( 'NONE', #241, 6.500000000000005300 ) ;
#94 = ORIENTED_EDGE ( 'NONE', *, *, #297, .T. ) ;
#95 = UNCERTAINTY_MEASURE_WITH_UNIT (LENGTH_MEASURE( 1.000000000000000100E-005 ), #61, 'distance_accuracy_value', 'NONE');
#96 = CARTESIAN_POINT ( 'NONE',  ( 76.50000000000000000, 54.52643198463999900, -44.43000000000000000 ) ) ;
#97 = LINE ( 'NONE', #350, #31 ) ;
#98 = FACE_OUTER_BOUND ( 'NONE', #70, .T. ) ;
#99 = ORIENTED_EDGE ( 'NONE', *, *, #327, .F. ) ;
#100 = ORIENTED_EDGE ( 'NONE', *, *, #338, .F. ) ;
#101 = ORIENTED_EDGE ( 'NONE', *, *, #352, .T. ) ;
#102 = DIRECTION ( 'NONE',  ( 1.000000000000000000, 0.0000000000000000000, 0.0000000000000000000 ) ) ;
#103 = DIRECTION ( 'NONE',  ( -0.0000000000000000000, -1.000000000000000000, -0.0000000000000000000 ) ) ;
#104 = APPLICATION_PROTOCOL_DEFINITION ( 'draft international standard', 'automotive_design', 1998, #124 ) ;
#105 = APPLICATION_CONTEXT ( 'automotive_design' ) ;
#106 = VECTOR ( 'NONE', #50, 1000.000000000000000 ) ;
#107 = DIRECTION ( 'NONE',  ( -1.000000000000000000, 0.0000000000000000000, 0.0000000000000000000 ) ) ;
#108 = TOROIDAL_SURFACE ( 'NONE', #278, 6.500000000000000000, 1.000000000000000000 ) ;
#109 = CIRCLE ( 'NONE', #178, 6.500000000000005300 ) ;
#110 = DIRECTION ( 'NONE',  ( -1.000000000000000000, 0.0000000000000000000, 0.0000000000000000000 ) ) ;
#111 = EDGE_LOOP ( 'NONE', ( #62, #80, #118, #345 ) ) ;
#112 = ORIENTED_EDGE ( 'NONE', *, *, #334, .F. ) ;
#113 = DIRECTION ( 'NONE',  ( 0.0000000000000000000, 0.0000000000000000000, 1.000000000000000000 ) ) ;
#114 = ADVANCED_BREP_SHAPE_REPRESENTATION ( '624U pillow', ( #301, #132 ), #160 ) ;
#115 = FACE_OUTER_BOUND ( 'NONE', #302, .T. ) ;
#116 = VERTEX_POINT ( 'NONE', #256 ) ;
#117 = DIRECTION ( 'NONE',  ( 0.0000000000000000000, 1.000000000000000000, 0.0000000000000000000 ) ) ;
#118 = ORIENTED_EDGE ( 'NONE', *, *, #306, .F. ) ;
#119 = DIRECTION ( 'NONE',  ( 0.0000000000000000000, 1.000000000000000000, -1.421085471520000200E-014 ) ) ;
#120 = PRODUCT_RELATED_PRODUCT_CATEGORY ( 'part', '', ( #75 ) ) ;
#121 = ORIENTED_EDGE ( 'NONE', *, *, #334, .T. ) ;
#122 = DIRECTION ( 'NONE',  ( 0.0000000000000000000, -1.000000000000000000, 0.0000000000000000000 ) ) ;
#123 = ORIENTED_EDGE ( 'NONE', *, *, #331, .T. ) ;
#124 = APPLICATION_CONTEXT ( 'automotive_design' ) ;
#125 = PRODUCT_DEFINITION_FORMATION_WITH_SPECIFIED_SOURCE ( 'ÈÎºÎ', '', #75, .NOT_KNOWN. ) ;
#126 = CARTESIAN_POINT ( 'NONE',  ( 74.50000000000000000, 52.52643198463999900, -44.43000000000000000 ) ) ;
#127 =( NAMED_UNIT ( * ) PLANE_ANGLE_UNIT ( ) SI_UNIT ( $, .RADIAN. ) );
#128 = CARTESIAN_POINT ( 'NONE',  ( 74.50000000000000000, 52.52643198463999900, -44.43000000000000000 ) ) ;
#129 = PRODUCT_DEFINITION ( 'Î´Öª', '', #125, #349 ) ;
#130 = CARTESIAN_POINT ( 'NONE',  ( 74.50000000000000000, 50.02643198464000600, -44.43000000000000000 ) ) ;
#131 = DIRECTION ( 'NONE',  ( 0.0000000000000000000, 0.0000000000000000000, 1.000000000000000000 ) ) ;
#132 = AXIS2_PLACEMENT_3D ( 'NONE', #195, #254, #83 ) ;
#133 = DIRECTION ( 'NONE',  ( 0.0000000000000000000, -1.000000000000000000, 0.0000000000000000000 ) ) ;
#134 = FILL_AREA_STYLE ('',( #90 ) ) ;
#135 = VERTEX_POINT ( 'NONE', #319 ) ;
#136 = SURFACE_STYLE_FILL_AREA ( #353 ) ;
#137 = EDGE_LOOP ( 'NONE', ( #23, #303 ) ) ;
#138 = CARTESIAN_POINT ( 'NONE',  ( 81.00000000000000000, 53.52643198463999900, -44.43000000000000000 ) ) ;
#139 = ADVANCED_FACE ( 'NONE', ( #342 ), #108, .F. ) ;
#140 =( GEOMETRIC_REPRESENTATION_CONTEXT ( 3 ) GLOBAL_UNCERTAINTY_ASSIGNED_CONTEXT ( ( #307 ) ) GLOBAL_UNIT_ASSIGNED_CONTEXT ( ( #193, #33, #223 ) ) REPRESENTATION_CONTEXT ( 'NONE', 'WORKASPACE' ) );
#141 = DIRECTION ( 'NONE',  ( 1.000000000000000000, 0.0000000000000000000, 0.0000000000000000000 ) ) ;
#142 = MECHANICAL_DESIGN_GEOMETRIC_PRESENTATION_REPRESENTATION (  '', ( #145 ), #140 ) ;
#143 = LINE ( 'NONE', #221, #77 ) ;
#144 = PRESENTATION_LAYER_ASSIGNMENT (  '', '', ( #145 ) ) ;
#145 = STYLED_ITEM ( 'NONE', ( #191 ), #114 ) ;
#146 = CARTESIAN_POINT ( 'NONE',  ( 80.00000000000000000, 52.52643198463999900, -44.43000000000000000 ) ) ;
#147 = CYLINDRICAL_SURFACE ( 'NONE', #237, 2.000000000000001800 ) ;
#148 = PRODUCT_DEFINITION_SHAPE ( 'NONE', 'NONE',  #129 ) ;
#149 = EDGE_LOOP ( 'NONE', ( #276, #175, #65, #209 ) ) ;
#150 = DIRECTION ( 'NONE',  ( 0.0000000000000000000, -1.000000000000000000, 0.0000000000000000000 ) ) ;
#151 = CIRCLE ( 'NONE', #177, 6.500000000000005300 ) ;
#152 = DIRECTION ( 'NONE',  ( -0.0000000000000000000, -1.000000000000000000, -0.0000000000000000000 ) ) ;
#153 = AXIS2_PLACEMENT_3D ( 'NONE', #315, #154, #222 ) ;
#154 = DIRECTION ( 'NONE',  ( 0.0000000000000000000, 1.000000000000000000, 0.0000000000000000000 ) ) ;
#155 = SURFACE_SIDE_STYLE ('',( #136 ) ) ;
#156 = DIRECTION ( 'NONE',  ( 0.0000000000000000000, 0.0000000000000000000, 1.000000000000000000 ) ) ;
#157 = AXIS2_PLACEMENT_3D ( 'NONE', #84, #285, #107 ) ;
#158 = CARTESIAN_POINT ( 'NONE',  ( 83.50000000000000000, 54.52643198463999900, -52.35926627000999600 ) ) ;
#159 = ADVANCED_FACE ( 'NONE', ( #36, #258 ), #197, .F. ) ;
#160 =( GEOMETRIC_REPRESENTATION_CONTEXT ( 3 ) GLOBAL_UNCERTAINTY_ASSIGNED_CONTEXT ( ( #337 ) ) GLOBAL_UNIT_ASSIGNED_CONTEXT ( ( #318, #127, #358 ) ) REPRESENTATION_CONTEXT ( 'NONE', 'WORKASPACE' ) );
#161 = FACE_OUTER_BOUND ( 'NONE', #66, .T. ) ;
#162 = CARTESIAN_POINT ( 'NONE',  ( 74.50000000000000000, 50.02643198464000600, -44.43000000000000000 ) ) ;
#163 = CLOSED_SHELL ( 'NONE', ( #330, #139, #260, #364, #38, #19, #166, #59, #287, #73, #203, #159 ) ) ;
#164 = DIRECTION ( 'NONE',  ( 1.000000000000000000, 0.0000000000000000000, 0.0000000000000000000 ) ) ;
#165 = AXIS2_PLACEMENT_3D ( 'NONE', #126, #354, #156 ) ;
#166 = ADVANCED_FACE ( 'NONE', ( #98 ), #93, .T. ) ;
#167 = CARTESIAN_POINT ( 'NONE',  ( 74.50000000000000000, 53.52643198463999900, -44.43000000000000000 ) ) ;
#168 = AXIS2_PLACEMENT_3D ( 'NONE', #253, #82, #282 ) ;
#169 = CARTESIAN_POINT ( 'NONE',  ( 74.50000000000000000, 54.52643198463999900, -44.43000000000000000 ) ) ;
#170 = AXIS2_PLACEMENT_3D ( 'NONE', #15, #192, #32 ) ;
#171 = CIRCLE ( 'NONE', #208, 6.500000000000005300 ) ;
#172 = TOROIDAL_SURFACE ( 'NONE', #180, 6.500000000000000000, 1.000000000000000000 ) ;
#173 = CYLINDRICAL_SURFACE ( 'NONE', #255, 6.500000000000005300 ) ;
#174 = SURFACE_STYLE_FILL_AREA ( #134 ) ;
#175 = ORIENTED_EDGE ( 'NONE', *, *, #348, .T. ) ;
#176 = EDGE_LOOP ( 'NONE', ( #268, #305, #262, #112 ) ) ;
#177 = AXIS2_PLACEMENT_3D ( 'NONE', #53, #252, #81 ) ;
#178 = AXIS2_PLACEMENT_3D ( 'NONE', #311, #122, #351 ) ;
#179 = SHAPE_DEFINITION_REPRESENTATION ( #148, #114 ) ;
#180 = AXIS2_PLACEMENT_3D ( 'NONE', #76, #188, #279 ) ;
#181 = DIRECTION ( 'NONE',  ( -1.000000000000000000, 0.0000000000000000000, 0.0000000000000000000 ) ) ;
#182 = LINE ( 'NONE', #138, #106 ) ;
#183 = CIRCLE ( 'NONE', #233, 1.000000000000000900 ) ;
#184 = AXIS2_PLACEMENT_3D ( 'NONE', #218, #51, #250 ) ;
#185 = VERTEX_POINT ( 'NONE', #321 ) ;
#186 = ORIENTED_EDGE ( 'NONE', *, *, #304, .T. ) ;
#187 = CARTESIAN_POINT ( 'NONE',  ( 74.50000000000000000, 50.52643198464000600, -44.43000000000000000 ) ) ;
#188 = DIRECTION ( 'NONE',  ( 0.0000000000000000000, 1.000000000000000000, 0.0000000000000000000 ) ) ;
#189 = DIRECTION ( 'NONE',  ( 0.0000000000000000000, 1.000000000000000000, 0.0000000000000000000 ) ) ;
#190 = AXIS2_PLACEMENT_3D ( 'NONE', #347, #150, #8 ) ;
#191 = PRESENTATION_STYLE_ASSIGNMENT (( #16 ) ) ;
#192 = DIRECTION ( 'NONE',  ( 0.0000000000000000000, 1.000000000000000000, 0.0000000000000000000 ) ) ;
#193 =( LENGTH_UNIT ( ) NAMED_UNIT ( * ) SI_UNIT ( .MILLI., .METRE. ) );
#194 = AXIS2_PLACEMENT_3D ( 'NONE', #74, #277, #102 ) ;
#195 = CARTESIAN_POINT ( 'NONE',  ( 0.0000000000000000000, 0.0000000000000000000, 0.0000000000000000000 ) ) ;
#196 = CARTESIAN_POINT ( 'NONE',  ( 74.50000000000000000, 50.02643198464000600, -44.43000000000000000 ) ) ;
#197 = PLANE ( 'NONE',  #246 ) ;
#198 = FACE_OUTER_BOUND ( 'NONE', #111, .T. ) ;
#199 = DIRECTION ( 'NONE',  ( 0.0000000000000000000, 1.000000000000000000, 0.0000000000000000000 ) ) ;
#200 = AXIS2_PLACEMENT_3D ( 'NONE', #187, #29, #215 ) ;
#201 = DIRECTION ( 'NONE',  ( -1.000000000000000000, 0.0000000000000000000, 0.0000000000000000000 ) ) ;
#202 = AXIS2_PLACEMENT_3D ( 'NONE', #308, #117, #346 ) ;
#203 = ADVANCED_FACE ( 'NONE', ( #161 ), #320, .T. ) ;
#204 = FACE_BOUND ( 'NONE', #269, .T. ) ;
#205 = DIRECTION ( 'NONE',  ( -1.000000000000000000, 0.0000000000000000000, 0.0000000000000000000 ) ) ;
#206 = ORIENTED_EDGE ( 'NONE', *, *, #322, .T. ) ;
#207 = AXIS2_PLACEMENT_3D ( 'NONE', #63, #266, #141 ) ;
#208 = AXIS2_PLACEMENT_3D ( 'NONE', #169, #24, #205 ) ;
#209 = ORIENTED_EDGE ( 'NONE', *, *, #331, .F. ) ;
#210 = ORIENTED_EDGE ( 'NONE', *, *, #366, .T. ) ;
#211 =( GEOMETRIC_REPRESENTATION_CONTEXT ( 3 ) GLOBAL_UNCERTAINTY_ASSIGNED_CONTEXT ( ( #95 ) ) GLOBAL_UNIT_ASSIGNED_CONTEXT ( ( #61, #264, #92 ) ) REPRESENTATION_CONTEXT ( 'NONE', 'WORKASPACE' ) );
#212 = ORIENTED_EDGE ( 'NONE', *, *, #314, .F. ) ;
#213 = MECHANICAL_DESIGN_GEOMETRIC_PRESENTATION_REPRESENTATION (  '', ( #219 ), #211 ) ;
#214 = ORIENTED_EDGE ( 'NONE', *, *, #289, .F. ) ;
#215 = DIRECTION ( 'NONE',  ( 1.000000000000000000, 0.0000000000000000000, 0.0000000000000000000 ) ) ;
#216 = PRESENTATION_LAYER_ASSIGNMENT (  '', '', ( #219 ) ) ;
#217 = ORIENTED_EDGE ( 'NONE', *, *, #313, .T. ) ;
#218 = CARTESIAN_POINT ( 'NONE',  ( 68.00000000000000000, 52.52643198463999900, -44.43000000000000000 ) ) ;
#219 = STYLED_ITEM ( 'NONE', ( #87 ), #301 ) ;
#220 = EDGE_LOOP ( 'NONE', ( #212, #123, #12, #295 ) ) ;
#221 = CARTESIAN_POINT ( 'NONE',  ( 72.50000000000000000, 50.52643198464000600, -44.43000000000000000 ) ) ;
#222 = DIRECTION ( 'NONE',  ( -1.000000000000000000, 0.0000000000000000000, 0.0000000000000000000 ) ) ;
#223 =( NAMED_UNIT ( * ) SI_UNIT ( $, .STERADIAN. ) SOLID_ANGLE_UNIT ( ) );
#224 = DIRECTION ( 'NONE',  ( 0.0000000000000000000, -1.000000000000000000, 0.0000000000000000000 ) ) ;
#225 = DIRECTION ( 'NONE',  ( 0.0000000000000000000, 0.0000000000000000000, 1.000000000000000000 ) ) ;
#226 = AXIS2_PLACEMENT_3D ( 'NONE', #167, #21, #201 ) ;
#227 = DIRECTION ( 'NONE',  ( -1.000000000000000000, 0.0000000000000000000, 0.0000000000000000000 ) ) ;
#228 = CARTESIAN_POINT ( 'NONE',  ( 68.00000000000000000, 50.52643198464000600, -44.43000000000000000 ) ) ;
#229 = AXIS2_PLACEMENT_3D ( 'NONE', #292, #113, #329 ) ;
#230 = DIRECTION ( 'NONE',  ( 0.0000000000000000000, 0.0000000000000000000, -1.000000000000000000 ) ) ;
#231 = CIRCLE ( 'NONE', #170, 5.499999999999998200 ) ;
#232 = SURFACE_STYLE_USAGE ( .BOTH. , #43 ) ;
#233 = AXIS2_PLACEMENT_3D ( 'NONE', #42, #230, #60 ) ;
#234 = AXIS2_PLACEMENT_3D ( 'NONE', #288, #39, #164 ) ;
#235 = FACE_OUTER_BOUND ( 'NONE', #176, .T. ) ;
#236 = ORIENTED_EDGE ( 'NONE', *, *, #361, .T. ) ;
#237 = AXIS2_PLACEMENT_3D ( 'NONE', #162, #199, #227 ) ;
#238 = CIRCLE ( 'NONE', #184, 1.000000000000000900 ) ;
#239 = AXIS2_PLACEMENT_3D ( 'NONE', #130, #86, #110 ) ;
#240 = CARTESIAN_POINT ( 'NONE',  ( 68.00000000000000000, 54.52643198463999900, -44.43000000000000000 ) ) ;
#241 = AXIS2_PLACEMENT_3D ( 'NONE', #55, #286, #37 ) ;
#242 = CIRCLE ( 'NONE', #194, 2.000000000000001800 ) ;
#243 = ORIENTED_EDGE ( 'NONE', *, *, #280, .T. ) ;
#244 = AXIS2_PLACEMENT_3D ( 'NONE', #323, #131, #362 ) ;
#245 = FACE_OUTER_BOUND ( 'NONE', #149, .T. ) ;
#246 = AXIS2_PLACEMENT_3D ( 'NONE', #158, #224, #225 ) ;
#247 = ORIENTED_EDGE ( 'NONE', *, *, #289, .T. ) ;
#248 = ORIENTED_EDGE ( 'NONE', *, *, #312, .T. ) ;
#249 = CARTESIAN_POINT ( 'NONE',  ( 81.00000000000000000, 50.52643198464000600, -44.43000000000000000 ) ) ;
#250 = DIRECTION ( 'NONE',  ( 0.0000000000000000000, 1.000000000000000000, 0.0000000000000000000 ) ) ;
#251 = AXIS2_PLACEMENT_3D ( 'NONE', #325, #133, #363 ) ;
#252 = DIRECTION ( 'NONE',  ( 0.0000000000000000000, 1.000000000000000000, 0.0000000000000000000 ) ) ;
#253 = CARTESIAN_POINT ( 'NONE',  ( 74.50000000000000000, 50.52643198464000600, -44.43000000000000000 ) ) ;
#254 = DIRECTION ( 'NONE',  ( 0.0000000000000000000, 0.0000000000000000000, 1.000000000000000000 ) ) ;
#255 = AXIS2_PLACEMENT_3D ( 'NONE', #196, #35, #54 ) ;
#256 = CARTESIAN_POINT ( 'NONE',  ( 69.00000000000000000, 52.52643198463999900, -44.43000000000000000 ) ) ;
#257 = VECTOR ( 'NONE', #119, 1000.000000000000000 ) ;
#258 = FACE_BOUND ( 'NONE', #290, .T. ) ;
#259 = CIRCLE ( 'NONE', #200, 2.000000000000001800 ) ;
#260 = ADVANCED_FACE ( 'NONE', ( #245 ), #147, .F. ) ;
#261 = ORIENTED_EDGE ( 'NONE', *, *, #339, .F. ) ;
#262 = ORIENTED_EDGE ( 'NONE', *, *, #340, .T. ) ;
#263 = CARTESIAN_POINT ( 'NONE',  ( 76.50000000000000000, 50.52643198464000600, -44.43000000000000000 ) ) ;
#264 =( NAMED_UNIT ( * ) PLANE_ANGLE_UNIT ( ) SI_UNIT ( $, .RADIAN. ) );
#265 = AXIS2_PLACEMENT_3D ( 'NONE', #291, #365, #18 ) ;
#266 = DIRECTION ( 'NONE',  ( 0.0000000000000000000, 1.000000000000000000, 0.0000000000000000000 ) ) ;
#267 = CIRCLE ( 'NONE', #226, 6.500000000000005300 ) ;
#268 = ORIENTED_EDGE ( 'NONE', *, *, #352, .F. ) ;
#269 = EDGE_LOOP ( 'NONE', ( #217, #48 ) ) ;
#270 = AXIS2_PLACEMENT_3D ( 'NONE', #5, #368, #56 ) ;
#271 = AXIS2_PLACEMENT_3D ( 'NONE', #71, #272, #181 ) ;
#272 = DIRECTION ( 'NONE',  ( 0.0000000000000000000, 1.000000000000000000, 0.0000000000000000000 ) ) ;
#273 = CARTESIAN_POINT ( 'NONE',  ( 68.00000000000000000, 53.52643198463999900, -44.43000000000000000 ) ) ;
#274 = FACE_OUTER_BOUND ( 'NONE', #137, .T. ) ;
#275 = COLOUR_RGB ( '',0.5921568627450980400, 0.6666666666666666300, 0.6823529411764706100 ) ;
#276 = ORIENTED_EDGE ( 'NONE', *, *, #366, .F. ) ;
#277 = DIRECTION ( 'NONE',  ( 0.0000000000000000000, -1.000000000000000000, 0.0000000000000000000 ) ) ;
#278 = AXIS2_PLACEMENT_3D ( 'NONE', #128, #85, #359 ) ;
#279 = DIRECTION ( 'NONE',  ( 1.000000000000000000, 0.0000000000000000000, 0.0000000000000000000 ) ) ;
#280 = EDGE_CURVE ( 'NONE', #344, #30, #333, .T. ) ;
#281 = FACE_OUTER_BOUND ( 'NONE', #40, .T. ) ;
#282 = DIRECTION ( 'NONE',  ( -1.000000000000000000, 0.0000000000000000000, 0.0000000000000000000 ) ) ;
#283 = PRODUCT_CONTEXT ( 'NONE', #124, 'mechanical' ) ;
#284 = ORIENTED_EDGE ( 'NONE', *, *, #361, .F. ) ;
#285 = DIRECTION ( 'NONE',  ( 0.0000000000000000000, -1.000000000000000000, 0.0000000000000000000 ) ) ;
#286 = DIRECTION ( 'NONE',  ( 0.0000000000000000000, 1.000000000000000000, 0.0000000000000000000 ) ) ;
#287 = ADVANCED_FACE ( 'NONE', ( #235 ), #45, .F. ) ;
#288 = CARTESIAN_POINT ( 'NONE',  ( 74.50000000000000000, 52.52643198463999900, -44.43000000000000000 ) ) ;
#289 = EDGE_CURVE ( 'NONE', #14, #2, #25, .T. ) ;
#290 = EDGE_LOOP ( 'NONE', ( #210, #299 ) ) ;
#291 = CARTESIAN_POINT ( 'NONE',  ( 74.50000000000000000, 52.52643198463999900, -44.43000000000000000 ) ) ;
#292 = CARTESIAN_POINT ( 'NONE',  ( 81.00000000000000000, 52.52643198463999900, -44.43000000000000000 ) ) ;
#293 = VERTEX_POINT ( 'NONE', #41 ) ;
#294 = EDGE_CURVE ( 'NONE', #336, #14, #28, .T. ) ;
#295 = ORIENTED_EDGE ( 'NONE', *, *, #348, .F. ) ;
#296 = VERTEX_POINT ( 'NONE', #263 ) ;
#297 = EDGE_CURVE ( 'NONE', #20, #116, #183, .T. ) ;
#298 = EDGE_CURVE ( 'NONE', #30, #185, #46, .T. ) ;
#299 = ORIENTED_EDGE ( 'NONE', *, *, #314, .T. ) ;
#300 = EDGE_CURVE ( 'NONE', #20, #344, #267, .T. ) ;
#301 = MANIFOLD_SOLID_BREP ( 'ÊäÈë1', #163 ) ;
#302 = EDGE_LOOP ( 'NONE', ( #13, #99, #335, #247 ) ) ;
#303 = ORIENTED_EDGE ( 'NONE', *, *, #317, .T. ) ;
#304 = EDGE_CURVE ( 'NONE', #7, #9, #171, .T. ) ;
#305 = ORIENTED_EDGE ( 'NONE', *, *, #298, .T. ) ;
#306 = EDGE_CURVE ( 'NONE', #9, #7, #332, .T. ) ;
#307 = UNCERTAINTY_MEASURE_WITH_UNIT (LENGTH_MEASURE( 1.000000000000000100E-005 ), #193, 'distance_accuracy_value', 'NONE');
#308 = CARTESIAN_POINT ( 'NONE',  ( 74.50000000000000000, 51.52643198464000600, -44.43000000000000000 ) ) ;
#309 = CARTESIAN_POINT ( 'NONE',  ( 81.00000000000000000, 50.52643198464000600, -44.43000000000000000 ) ) ;
#310 = FACE_OUTER_BOUND ( 'NONE', #220, .T. ) ;
#311 = CARTESIAN_POINT ( 'NONE',  ( 74.50000000000000000, 53.52643198463999900, -44.43000000000000000 ) ) ;
#312 = EDGE_CURVE ( 'NONE', #2, #185, #34, .T. ) ;
#313 = EDGE_CURVE ( 'NONE', #296, #293, #259, .T. ) ;
#314 = EDGE_CURVE ( 'NONE', #57, #135, #242, .T. ) ;
#315 = CARTESIAN_POINT ( 'NONE',  ( 74.50000000000000000, 50.02643198464000600, -44.43000000000000000 ) ) ;
#316 = APPLICATION_PROTOCOL_DEFINITION ( 'draft international standard', 'automotive_design', 1998, #105 ) ;
#317 = EDGE_CURVE ( 'NONE', #14, #336, #356, .T. ) ;
#318 =( LENGTH_UNIT ( ) NAMED_UNIT ( * ) SI_UNIT ( .MILLI., .METRE. ) );
#319 = CARTESIAN_POINT ( 'NONE',  ( 72.50000000000000000, 54.52643198463999900, -44.43000000000000000 ) ) ;
#320 = CYLINDRICAL_SURFACE ( 'NONE', #239, 6.500000000000005300 ) ;
#321 = CARTESIAN_POINT ( 'NONE',  ( 81.00000000000000000, 51.52643198464000600, -44.43000000000000000 ) ) ;
#322 = EDGE_CURVE ( 'NONE', #344, #9, #182, .T. ) ;
#323 = CARTESIAN_POINT ( 'NONE',  ( 81.00000000000000000, 52.52643198463999900, -44.43000000000000000 ) ) ;
#324 = EDGE_LOOP ( 'NONE', ( #186, #68 ) ) ;
#325 = CARTESIAN_POINT ( 'NONE',  ( 74.50000000000000000, 50.52643198464000600, -44.43000000000000000 ) ) ;
#326 = ORIENTED_EDGE ( 'NONE', *, *, #280, .F. ) ;
#327 = EDGE_CURVE ( 'NONE', #336, #185, #341, .T. ) ;
#328 = LINE ( 'NONE', #78, #27 ) ;
#329 = DIRECTION ( 'NONE',  ( 0.0000000000000000000, 1.000000000000000000, 0.0000000000000000000 ) ) ;
#330 = ADVANCED_FACE ( 'NONE', ( #44 ), #172, .F. ) ;
#331 = EDGE_CURVE ( 'NONE', #57, #296, #97, .T. ) ;
#332 = CIRCLE ( 'NONE', #207, 6.500000000000005300 ) ;
#333 = CIRCLE ( 'NONE', #244, 1.000000000000000900 ) ;
#334 = EDGE_CURVE ( 'NONE', #116, #2, #238, .T. ) ;
#335 = ORIENTED_EDGE ( 'NONE', *, *, #317, .F. ) ;
#336 = VERTEX_POINT ( 'NONE', #249 ) ;
#337 = UNCERTAINTY_MEASURE_WITH_UNIT (LENGTH_MEASURE( 1.000000000000000100E-005 ), #318, 'distance_accuracy_value', 'NONE');
#338 = EDGE_CURVE ( 'NONE', #344, #20, #109, .T. ) ;
#339 = EDGE_CURVE ( 'NONE', #20, #7, #328, .T. ) ;
#340 = EDGE_CURVE ( 'NONE', #185, #2, #151, .T. ) ;
#341 = LINE ( 'NONE', #309, #257 ) ;
#342 = FACE_OUTER_BOUND ( 'NONE', #360, .T. ) ;
#343 = COLOUR_RGB ( '',0.5921568627450980400, 0.6666666666666666300, 0.6823529411764706100 ) ;
#344 = VERTEX_POINT ( 'NONE', #11 ) ;
#345 = ORIENTED_EDGE ( 'NONE', *, *, #322, .F. ) ;
#346 = DIRECTION ( 'NONE',  ( -1.000000000000000000, 0.0000000000000000000, 0.0000000000000000000 ) ) ;
#347 = CARTESIAN_POINT ( 'NONE',  ( 74.50000000000000000, 50.52643198464000600, -44.43000000000000000 ) ) ;
#348 = EDGE_CURVE ( 'NONE', #135, #293, #143, .T. ) ;
#349 = PRODUCT_DEFINITION_CONTEXT ( 'detailed design', #105, 'design' ) ;
#350 = CARTESIAN_POINT ( 'NONE',  ( 76.50000000000000000, 50.52643198464000600, -44.43000000000000000 ) ) ;
#351 = DIRECTION ( 'NONE',  ( 1.000000000000000000, 0.0000000000000000000, 0.0000000000000000000 ) ) ;
#352 = EDGE_CURVE ( 'NONE', #30, #116, #231, .T. ) ;
#353 = FILL_AREA_STYLE ('',( #17 ) ) ;
#354 = DIRECTION ( 'NONE',  ( 0.0000000000000000000, 1.000000000000000000, 0.0000000000000000000 ) ) ;
#355 = EDGE_CURVE ( 'NONE', #293, #296, #22, .T. ) ;
#356 = CIRCLE ( 'NONE', #190, 6.500000000000005300 ) ;
#357 = VECTOR ( 'NONE', #58, 1000.000000000000000 ) ;
#358 =( NAMED_UNIT ( * ) SI_UNIT ( $, .STERADIAN. ) SOLID_ANGLE_UNIT ( ) );
#359 = DIRECTION ( 'NONE',  ( 1.000000000000000000, 0.0000000000000000000, 0.0000000000000000000 ) ) ;
#360 = EDGE_LOOP ( 'NONE', ( #94, #236, #326, #1 ) ) ;
#361 = EDGE_CURVE ( 'NONE', #116, #30, #91, .T. ) ;
#362 = DIRECTION ( 'NONE',  ( 0.0000000000000000000, 1.000000000000000000, 0.0000000000000000000 ) ) ;
#363 = DIRECTION ( 'NONE',  ( 1.000000000000000000, 0.0000000000000000000, 0.0000000000000000000 ) ) ;
#364 = ADVANCED_FACE ( 'NONE', ( #310 ), #10, .F. ) ;
#365 = DIRECTION ( 'NONE',  ( 0.0000000000000000000, 1.000000000000000000, 0.0000000000000000000 ) ) ;
#366 = EDGE_CURVE ( 'NONE', #135, #57, #67, .T. ) ;
#367 = CYLINDRICAL_SURFACE ( 'NONE', #271, 6.500000000000005300 ) ;
#368 = DIRECTION ( 'NONE',  ( 0.0000000000000000000, 1.000000000000000000, 0.0000000000000000000 ) ) ;
ENDSEC;
END-ISO-10303-21;
