ISO-10303-21;
HEADER;
FILE_DESCRIPTION (( 'STEP AP214' ),
    '1' );
FILE_NAME ('Spacers for rollers.step',
    '2018-06-21T12:59:49',
    ( 'User' ),
    ( 'china' ),
    'SwSTEP 2.0',
    'SolidWorks 2016',
    '' );
FILE_SCHEMA (( 'AUTOMOTIVE_DESIGN' ));
ENDSEC;

DATA;
#1 = VERTEX_POINT ( 'NONE', #214 ) ;
#2 = ADVANCED_FACE ( 'NONE', ( #204 ), #111, .T. ) ;
#3 = VERTEX_POINT ( 'NONE', #206 ) ;
#4 = ADVANCED_FACE ( 'NONE', ( #107, #114 ), #207, .T. ) ;
#5 = EDGE_LOOP ( 'NONE', ( #11, #151 ) ) ;
#6 = ADVANCED_BREP_SHAPE_REPRESENTATION ( 'Spacers for rollers', ( #187, #24 ), #21 ) ;
#7 = ORIENTED_EDGE ( 'NONE', *, *, #141, .F. ) ;
#8 = PRODUCT_DEFINITION_CONTEXT ( 'detailed design', #14, 'design' ) ;
#9 = ORIENTED_EDGE ( 'NONE', *, *, #125, .F. ) ;
#10 = ORIENTED_EDGE ( 'NONE', *, *, #95, .T. ) ;
#11 = ORIENTED_EDGE ( 'NONE', *, *, #113, .F. ) ;
#12 = APPLICATION_PROTOCOL_DEFINITION ( 'draft international standard', 'automotive_design', 1998, #14 ) ;
#13 = PRODUCT_DEFINITION_FORMATION_WITH_SPECIFIED_SOURCE ( 'ÈÎºÎ', '', #202, .NOT_KNOWN. ) ;
#14 = APPLICATION_CONTEXT ( 'automotive_design' ) ;
#15 = UNCERTAINTY_MEASURE_WITH_UNIT (LENGTH_MEASURE( 1.000000000000000100E-005 ), #55, 'distance_accuracy_value', 'NONE');
#16 =( GEOMETRIC_REPRESENTATION_CONTEXT ( 3 ) GLOBAL_UNCERTAINTY_ASSIGNED_CONTEXT ( ( #25 ) ) GLOBAL_UNIT_ASSIGNED_CONTEXT ( ( #32, #31, #30 ) ) REPRESENTATION_CONTEXT ( 'NONE', 'WORKASPACE' ) );
#17 = PRODUCT_CONTEXT ( 'NONE', #36, 'mechanical' ) ;
#18 = DIRECTION ( 'NONE',  ( 1.000000000000000000, 0.0000000000000000000, 0.0000000000000000000 ) ) ;
#19 = DIRECTION ( 'NONE',  ( 0.0000000000000000000, 0.0000000000000000000, 1.000000000000000000 ) ) ;
#20 = PRODUCT_RELATED_PRODUCT_CATEGORY ( 'part', '', ( #202 ) ) ;
#21 =( GEOMETRIC_REPRESENTATION_CONTEXT ( 3 ) GLOBAL_UNCERTAINTY_ASSIGNED_CONTEXT ( ( #38 ) ) GLOBAL_UNIT_ASSIGNED_CONTEXT ( ( #60, #39, #40 ) ) REPRESENTATION_CONTEXT ( 'NONE', 'WORKASPACE' ) );
#22 = STYLED_ITEM ( 'NONE', ( #129 ), #6 ) ;
#23 = PRODUCT_DEFINITION ( 'Î´Öª', '', #13, #8 ) ;
#24 = AXIS2_PLACEMENT_3D ( 'NONE', #48, #19, #18 ) ;
#25 = UNCERTAINTY_MEASURE_WITH_UNIT (LENGTH_MEASURE( 1.000000000000000100E-005 ), #32, 'distance_accuracy_value', 'NONE');
#26 = MECHANICAL_DESIGN_GEOMETRIC_PRESENTATION_REPRESENTATION (  '', ( #22 ), #16 ) ;
#27 = PRESENTATION_LAYER_ASSIGNMENT (  '', '', ( #22 ) ) ;
#28 = ORIENTED_EDGE ( 'NONE', *, *, #145, .F. ) ;
#29 = ORIENTED_EDGE ( 'NONE', *, *, #127, .T. ) ;
#30 =( NAMED_UNIT ( * ) SI_UNIT ( $, .STERADIAN. ) SOLID_ANGLE_UNIT ( ) );
#31 =( NAMED_UNIT ( * ) PLANE_ANGLE_UNIT ( ) SI_UNIT ( $, .RADIAN. ) );
#32 =( LENGTH_UNIT ( ) NAMED_UNIT ( * ) SI_UNIT ( .MILLI., .METRE. ) );
#33 = SURFACE_STYLE_USAGE ( .BOTH. , #34 ) ;
#34 = SURFACE_SIDE_STYLE ('',( #131 ) ) ;
#35 = FILL_AREA_STYLE ('',( #62 ) ) ;
#36 = APPLICATION_CONTEXT ( 'automotive_design' ) ;
#37 = APPLICATION_PROTOCOL_DEFINITION ( 'draft international standard', 'automotive_design', 1998, #36 ) ;
#38 = UNCERTAINTY_MEASURE_WITH_UNIT (LENGTH_MEASURE( 1.000000000000000100E-005 ), #60, 'distance_accuracy_value', 'NONE');
#39 =( NAMED_UNIT ( * ) PLANE_ANGLE_UNIT ( ) SI_UNIT ( $, .RADIAN. ) );
#40 =( NAMED_UNIT ( * ) SI_UNIT ( $, .STERADIAN. ) SOLID_ANGLE_UNIT ( ) );
#41 = VERTEX_POINT ( 'NONE', #212 ) ;
#42 = VECTOR ( 'NONE', #128, 1000.000000000000000 ) ;
#43 = FACE_OUTER_BOUND ( 'NONE', #134, .T. ) ;
#44 = EDGE_LOOP ( 'NONE', ( #9, #158 ) ) ;
#45 = ADVANCED_FACE ( 'NONE', ( #43 ), #179, .F. ) ;
#46 = LINE ( 'NONE', #106, #42 ) ;
#47 = CARTESIAN_POINT ( 'NONE',  ( 2.750000000000000000, 0.0000000000000000000, 0.0000000000000000000 ) ) ;
#48 = CARTESIAN_POINT ( 'NONE',  ( 0.0000000000000000000, 0.0000000000000000000, 0.0000000000000000000 ) ) ;
#49 = EDGE_LOOP ( 'NONE', ( #102, #7 ) ) ;
#50 = CARTESIAN_POINT ( 'NONE',  ( 4.000000000000000000, 0.0000000000000000000, 8.349999999999999600 ) ) ;
#51 =( NAMED_UNIT ( * ) PLANE_ANGLE_UNIT ( ) SI_UNIT ( $, .RADIAN. ) );
#52 =( NAMED_UNIT ( * ) SI_UNIT ( $, .STERADIAN. ) SOLID_ANGLE_UNIT ( ) );
#53 = ORIENTED_EDGE ( 'NONE', *, *, #143, .T. ) ;
#54 = FILL_AREA_STYLE_COLOUR ( '', #175 ) ;
#55 =( LENGTH_UNIT ( ) NAMED_UNIT ( * ) SI_UNIT ( .MILLI., .METRE. ) );
#56 = SURFACE_SIDE_STYLE ('',( #171 ) ) ;
#57 = DIRECTION ( 'NONE',  ( -1.000000000000000000, 0.0000000000000000000, 0.0000000000000000000 ) ) ;
#58 = SURFACE_STYLE_USAGE ( .BOTH. , #56 ) ;
#59 = FILL_AREA_STYLE ('',( #54 ) ) ;
#60 =( LENGTH_UNIT ( ) NAMED_UNIT ( * ) SI_UNIT ( .MILLI., .METRE. ) );
#61 = ADVANCED_FACE ( 'NONE', ( #155 ), #101, .F. ) ;
#62 = FILL_AREA_STYLE_COLOUR ( '', #133 ) ;
#63 = VERTEX_POINT ( 'NONE', #182 ) ;
#64 = CARTESIAN_POINT ( 'NONE',  ( 0.0000000000000000000, 0.0000000000000000000, 0.0000000000000000000 ) ) ;
#65 = PLANE ( 'NONE',  #77 ) ;
#66 = CARTESIAN_POINT ( 'NONE',  ( 0.0000000000000000000, 0.0000000000000000000, 0.0000000000000000000 ) ) ;
#67 = AXIS2_PLACEMENT_3D ( 'NONE', #140, #139, #126 ) ;
#68 = DIRECTION ( 'NONE',  ( -1.000000000000000000, 0.0000000000000000000, 0.0000000000000000000 ) ) ;
#69 = AXIS2_PLACEMENT_3D ( 'NONE', #124, #122, #121 ) ;
#70 = AXIS2_PLACEMENT_3D ( 'NONE', #116, #118, #117 ) ;
#71 = AXIS2_PLACEMENT_3D ( 'NONE', #105, #108, #104 ) ;
#72 = ORIENTED_EDGE ( 'NONE', *, *, #93, .F. ) ;
#73 = AXIS2_PLACEMENT_3D ( 'NONE', #99, #92, #103 ) ;
#74 = DIRECTION ( 'NONE',  ( -0.0000000000000000000, -0.0000000000000000000, 1.000000000000000000 ) ) ;
#75 = STYLED_ITEM ( 'NONE', ( #170 ), #187 ) ;
#76 = AXIS2_PLACEMENT_3D ( 'NONE', #66, #109, #68 ) ;
#77 = AXIS2_PLACEMENT_3D ( 'NONE', #64, #120, #57 ) ;
#78 = PRESENTATION_LAYER_ASSIGNMENT (  '', '', ( #75 ) ) ;
#79 = MECHANICAL_DESIGN_GEOMETRIC_PRESENTATION_REPRESENTATION (  '', ( #75 ), #81 ) ;
#80 = CIRCLE ( 'NONE', #88, 2.750000000000000000 ) ;
#81 =( GEOMETRIC_REPRESENTATION_CONTEXT ( 3 ) GLOBAL_UNCERTAINTY_ASSIGNED_CONTEXT ( ( #15 ) ) GLOBAL_UNIT_ASSIGNED_CONTEXT ( ( #55, #51, #52 ) ) REPRESENTATION_CONTEXT ( 'NONE', 'WORKASPACE' ) );
#82 = AXIS2_PLACEMENT_3D ( 'NONE', #146, #147, #144 ) ;
#83 = AXIS2_PLACEMENT_3D ( 'NONE', #195, #193, #192 ) ;
#84 = ORIENTED_EDGE ( 'NONE', *, *, #143, .F. ) ;
#85 = AXIS2_PLACEMENT_3D ( 'NONE', #194, #196, #199 ) ;
#86 = AXIS2_PLACEMENT_3D ( 'NONE', #165, #162, #160 ) ;
#87 = AXIS2_PLACEMENT_3D ( 'NONE', #91, #94, #168 ) ;
#88 = AXIS2_PLACEMENT_3D ( 'NONE', #166, #159, #167 ) ;
#89 = LINE ( 'NONE', #97, #183 ) ;
#90 = AXIS2_PLACEMENT_3D ( 'NONE', #213, #211, #205 ) ;
#91 = CARTESIAN_POINT ( 'NONE',  ( 0.0000000000000000000, 0.0000000000000000000, 8.349999999999999600 ) ) ;
#92 = DIRECTION ( 'NONE',  ( 0.0000000000000000000, 0.0000000000000000000, 1.000000000000000000 ) ) ;
#93 = EDGE_CURVE ( 'NONE', #210, #3, #184, .T. ) ;
#94 = DIRECTION ( 'NONE',  ( 0.0000000000000000000, 0.0000000000000000000, 1.000000000000000000 ) ) ;
#95 = EDGE_CURVE ( 'NONE', #1, #3, #80, .T. ) ;
#96 = LINE ( 'NONE', #164, #148 ) ;
#97 = CARTESIAN_POINT ( 'NONE',  ( -4.000000000000000000, 0.0000000000000000000, 8.349999999999999600 ) ) ;
#98 = CIRCLE ( 'NONE', #82, 2.750000000000000000 ) ;
#99 = CARTESIAN_POINT ( 'NONE',  ( 0.0000000000000000000, 0.0000000000000000000, 0.0000000000000000000 ) ) ;
#100 = EDGE_CURVE ( 'NONE', #41, #123, #197, .T. ) ;
#101 = CYLINDRICAL_SURFACE ( 'NONE', #83, 2.750000000000000000 ) ;
#102 = ORIENTED_EDGE ( 'NONE', *, *, #100, .F. ) ;
#103 = DIRECTION ( 'NONE',  ( 1.000000000000000000, 0.0000000000000000000, 0.0000000000000000000 ) ) ;
#104 = DIRECTION ( 'NONE',  ( -1.000000000000000000, 0.0000000000000000000, 0.0000000000000000000 ) ) ;
#105 = CARTESIAN_POINT ( 'NONE',  ( 0.0000000000000000000, 0.0000000000000000000, 8.349999999999999600 ) ) ;
#106 = CARTESIAN_POINT ( 'NONE',  ( 4.000000000000000000, 0.0000000000000000000, 8.349999999999999600 ) ) ;
#107 = FACE_OUTER_BOUND ( 'NONE', #172, .T. ) ;
#108 = DIRECTION ( 'NONE',  ( 0.0000000000000000000, 0.0000000000000000000, -1.000000000000000000 ) ) ;
#109 = DIRECTION ( 'NONE',  ( 0.0000000000000000000, 0.0000000000000000000, 1.000000000000000000 ) ) ;
#110 = SHAPE_DEFINITION_REPRESENTATION ( #149, #6 ) ;
#111 = CYLINDRICAL_SURFACE ( 'NONE', #90, 4.000000000000000000 ) ;
#112 = EDGE_CURVE ( 'NONE', #115, #1, #96, .T. ) ;
#113 = EDGE_CURVE ( 'NONE', #3, #1, #98, .T. ) ;
#114 = FACE_BOUND ( 'NONE', #5, .T. ) ;
#115 = VERTEX_POINT ( 'NONE', #156 ) ;
#116 = CARTESIAN_POINT ( 'NONE',  ( 0.0000000000000000000, 0.0000000000000000000, 0.0000000000000000000 ) ) ;
#117 = DIRECTION ( 'NONE',  ( 1.000000000000000000, 0.0000000000000000000, 0.0000000000000000000 ) ) ;
#118 = DIRECTION ( 'NONE',  ( 0.0000000000000000000, 0.0000000000000000000, -1.000000000000000000 ) ) ;
#119 = ORIENTED_EDGE ( 'NONE', *, *, #145, .T. ) ;
#120 = DIRECTION ( 'NONE',  ( 0.0000000000000000000, 0.0000000000000000000, 1.000000000000000000 ) ) ;
#121 = DIRECTION ( 'NONE',  ( 1.000000000000000000, 0.0000000000000000000, 0.0000000000000000000 ) ) ;
#122 = DIRECTION ( 'NONE',  ( 0.0000000000000000000, 0.0000000000000000000, -1.000000000000000000 ) ) ;
#123 = VERTEX_POINT ( 'NONE', #191 ) ;
#124 = CARTESIAN_POINT ( 'NONE',  ( 0.0000000000000000000, 0.0000000000000000000, 8.349999999999999600 ) ) ;
#125 = EDGE_CURVE ( 'NONE', #115, #210, #186, .T. ) ;
#126 = DIRECTION ( 'NONE',  ( -1.000000000000000000, 0.0000000000000000000, 0.0000000000000000000 ) ) ;
#127 = EDGE_CURVE ( 'NONE', #177, #63, #208, .T. ) ;
#128 = DIRECTION ( 'NONE',  ( -0.0000000000000000000, -0.0000000000000000000, 1.000000000000000000 ) ) ;
#129 = PRESENTATION_STYLE_ASSIGNMENT (( #33 ) ) ;
#130 = VECTOR ( 'NONE', #180, 1000.000000000000000 ) ;
#131 = SURFACE_STYLE_FILL_AREA ( #35 ) ;
#132 = ORIENTED_EDGE ( 'NONE', *, *, #113, .T. ) ;
#133 = COLOUR_RGB ( '',0.4901960784313725300, 0.4901960784313725300, 0.4901960784313725300 ) ;
#134 = EDGE_LOOP ( 'NONE', ( #188, #132, #173, #200 ) ) ;
#135 = EDGE_CURVE ( 'NONE', #210, #115, #157, .T. ) ;
#136 = EDGE_CURVE ( 'NONE', #63, #177, #154, .T. ) ;
#137 = CIRCLE ( 'NONE', #73, 4.000000000000000000 ) ;
#138 = EDGE_LOOP ( 'NONE', ( #190, #10, #72, #203 ) ) ;
#139 = DIRECTION ( 'NONE',  ( 0.0000000000000000000, 0.0000000000000000000, -1.000000000000000000 ) ) ;
#140 = CARTESIAN_POINT ( 'NONE',  ( 0.0000000000000000000, 0.0000000000000000000, 0.0000000000000000000 ) ) ;
#141 = EDGE_CURVE ( 'NONE', #123, #41, #137, .T. ) ;
#142 = ORIENTED_EDGE ( 'NONE', *, *, #127, .F. ) ;
#143 = EDGE_CURVE ( 'NONE', #123, #177, #46, .T. ) ;
#144 = DIRECTION ( 'NONE',  ( 1.000000000000000000, 0.0000000000000000000, 0.0000000000000000000 ) ) ;
#145 = EDGE_CURVE ( 'NONE', #41, #63, #89, .T. ) ;
#146 = CARTESIAN_POINT ( 'NONE',  ( 0.0000000000000000000, 0.0000000000000000000, 8.349999999999999600 ) ) ;
#147 = DIRECTION ( 'NONE',  ( 0.0000000000000000000, 0.0000000000000000000, 1.000000000000000000 ) ) ;
#148 = VECTOR ( 'NONE', #163, 1000.000000000000000 ) ;
#149 = PRODUCT_DEFINITION_SHAPE ( 'NONE', 'NONE',  #23 ) ;
#150 = ORIENTED_EDGE ( 'NONE', *, *, #141, .T. ) ;
#151 = ORIENTED_EDGE ( 'NONE', *, *, #95, .F. ) ;
#152 = ORIENTED_EDGE ( 'NONE', *, *, #100, .T. ) ;
#153 = ADVANCED_FACE ( 'NONE', ( #181 ), #176, .T. ) ;
#154 = CIRCLE ( 'NONE', #71, 4.000000000000000000 ) ;
#155 = FACE_OUTER_BOUND ( 'NONE', #138, .T. ) ;
#156 = CARTESIAN_POINT ( 'NONE',  ( -2.750000000000000000, 0.0000000000000000000, 0.0000000000000000000 ) ) ;
#157 = CIRCLE ( 'NONE', #70, 2.750000000000000000 ) ;
#158 = ORIENTED_EDGE ( 'NONE', *, *, #135, .F. ) ;
#159 = DIRECTION ( 'NONE',  ( 0.0000000000000000000, 0.0000000000000000000, 1.000000000000000000 ) ) ;
#160 = DIRECTION ( 'NONE',  ( -1.000000000000000000, 0.0000000000000000000, 0.0000000000000000000 ) ) ;
#161 = ORIENTED_EDGE ( 'NONE', *, *, #136, .F. ) ;
#162 = DIRECTION ( 'NONE',  ( 0.0000000000000000000, 0.0000000000000000000, 1.000000000000000000 ) ) ;
#163 = DIRECTION ( 'NONE',  ( -0.0000000000000000000, -0.0000000000000000000, 1.000000000000000000 ) ) ;
#164 = CARTESIAN_POINT ( 'NONE',  ( -2.750000000000000000, 0.0000000000000000000, 8.349999999999999600 ) ) ;
#165 = CARTESIAN_POINT ( 'NONE',  ( 0.0000000000000000000, 0.0000000000000000000, 0.0000000000000000000 ) ) ;
#166 = CARTESIAN_POINT ( 'NONE',  ( 0.0000000000000000000, 0.0000000000000000000, 8.349999999999999600 ) ) ;
#167 = DIRECTION ( 'NONE',  ( -1.000000000000000000, 0.0000000000000000000, 0.0000000000000000000 ) ) ;
#168 = DIRECTION ( 'NONE',  ( -1.000000000000000000, 0.0000000000000000000, 0.0000000000000000000 ) ) ;
#169 = FACE_OUTER_BOUND ( 'NONE', #49, .T. ) ;
#170 = PRESENTATION_STYLE_ASSIGNMENT (( #58 ) ) ;
#171 = SURFACE_STYLE_FILL_AREA ( #59 ) ;
#172 = EDGE_LOOP ( 'NONE', ( #142, #161 ) ) ;
#173 = ORIENTED_EDGE ( 'NONE', *, *, #112, .F. ) ;
#174 = ADVANCED_FACE ( 'NONE', ( #169, #178 ), #65, .F. ) ;
#175 = COLOUR_RGB ( '',0.4901960784313725300, 0.4901960784313725300, 0.4901960784313725300 ) ;
#176 = CYLINDRICAL_SURFACE ( 'NONE', #76, 4.000000000000000000 ) ;
#177 = VERTEX_POINT ( 'NONE', #50 ) ;
#178 = FACE_BOUND ( 'NONE', #44, .T. ) ;
#179 = CYLINDRICAL_SURFACE ( 'NONE', #85, 2.750000000000000000 ) ;
#180 = DIRECTION ( 'NONE',  ( -0.0000000000000000000, -0.0000000000000000000, 1.000000000000000000 ) ) ;
#181 = FACE_OUTER_BOUND ( 'NONE', #189, .T. ) ;
#182 = CARTESIAN_POINT ( 'NONE',  ( -4.000000000000000000, 0.0000000000000000000, 8.349999999999999600 ) ) ;
#183 = VECTOR ( 'NONE', #74, 1000.000000000000000 ) ;
#184 = LINE ( 'NONE', #185, #130 ) ;
#185 = CARTESIAN_POINT ( 'NONE',  ( 2.750000000000000000, 0.0000000000000000000, 8.349999999999999600 ) ) ;
#186 = CIRCLE ( 'NONE', #67, 2.750000000000000000 ) ;
#187 = MANIFOLD_SOLID_BREP ( 'ÊäÈë1', #198 ) ;
#188 = ORIENTED_EDGE ( 'NONE', *, *, #93, .T. ) ;
#189 = EDGE_LOOP ( 'NONE', ( #119, #201, #84, #150 ) ) ;
#190 = ORIENTED_EDGE ( 'NONE', *, *, #112, .T. ) ;
#191 = CARTESIAN_POINT ( 'NONE',  ( 4.000000000000000000, 0.0000000000000000000, 0.0000000000000000000 ) ) ;
#192 = DIRECTION ( 'NONE',  ( -1.000000000000000000, 0.0000000000000000000, 0.0000000000000000000 ) ) ;
#193 = DIRECTION ( 'NONE',  ( 0.0000000000000000000, 0.0000000000000000000, 1.000000000000000000 ) ) ;
#194 = CARTESIAN_POINT ( 'NONE',  ( 0.0000000000000000000, 0.0000000000000000000, 0.0000000000000000000 ) ) ;
#195 = CARTESIAN_POINT ( 'NONE',  ( 0.0000000000000000000, 0.0000000000000000000, 0.0000000000000000000 ) ) ;
#196 = DIRECTION ( 'NONE',  ( 0.0000000000000000000, 0.0000000000000000000, 1.000000000000000000 ) ) ;
#197 = CIRCLE ( 'NONE', #86, 4.000000000000000000 ) ;
#198 = CLOSED_SHELL ( 'NONE', ( #174, #153, #2, #4, #61, #45 ) ) ;
#199 = DIRECTION ( 'NONE',  ( -1.000000000000000000, 0.0000000000000000000, 0.0000000000000000000 ) ) ;
#200 = ORIENTED_EDGE ( 'NONE', *, *, #125, .T. ) ;
#201 = ORIENTED_EDGE ( 'NONE', *, *, #136, .T. ) ;
#202 = PRODUCT ( 'Spacers for rollers', 'Spacers for rollers', '', ( #17 ) ) ;
#203 = ORIENTED_EDGE ( 'NONE', *, *, #135, .T. ) ;
#204 = FACE_OUTER_BOUND ( 'NONE', #209, .T. ) ;
#205 = DIRECTION ( 'NONE',  ( -1.000000000000000000, 0.0000000000000000000, 0.0000000000000000000 ) ) ;
#206 = CARTESIAN_POINT ( 'NONE',  ( 2.750000000000000000, 0.0000000000000000000, 8.349999999999999600 ) ) ;
#207 = PLANE ( 'NONE',  #87 ) ;
#208 = CIRCLE ( 'NONE', #69, 4.000000000000000000 ) ;
#209 = EDGE_LOOP ( 'NONE', ( #53, #29, #28, #152 ) ) ;
#210 = VERTEX_POINT ( 'NONE', #47 ) ;
#211 = DIRECTION ( 'NONE',  ( 0.0000000000000000000, 0.0000000000000000000, 1.000000000000000000 ) ) ;
#212 = CARTESIAN_POINT ( 'NONE',  ( -4.000000000000000000, 0.0000000000000000000, 0.0000000000000000000 ) ) ;
#213 = CARTESIAN_POINT ( 'NONE',  ( 0.0000000000000000000, 0.0000000000000000000, 0.0000000000000000000 ) ) ;
#214 = CARTESIAN_POINT ( 'NONE',  ( -2.750000000000000000, 0.0000000000000000000, 8.349999999999999600 ) ) ;
ENDSEC;
END-ISO-10303-21;
