ISO-10303-21;
HEADER;
FILE_DESCRIPTION (( 'STEP AP214' ),
    '1' );
FILE_NAME ('Nozzle thermistor.step',
    '2018-06-21T12:59:33',
    ( 'User' ),
    ( 'china' ),
    'SwSTEP 2.0',
    'SolidWorks 2016',
    '' );
FILE_SCHEMA (( 'AUTOMOTIVE_DESIGN' ));
ENDSEC;

DATA;
#1 = CARTESIAN_POINT ( 'NONE',  ( 0.1862337064312337700, 6.123233995736767900E-018, 4.000000000000000000 ) ) ;
#2 = FACE_BOUND ( 'NONE', #278, .T. ) ;
#3 = CARTESIAN_POINT ( 'NONE',  ( 1.000000000000000200, 1.224646799147353500E-016, 0.7999999999999999300 ) ) ;
#4 = CYLINDRICAL_SURFACE ( 'NONE', #229, 1.000000000000000200 ) ;
#5 = PRODUCT ( 'Nozzle thermistor', 'Nozzle thermistor', '', ( #22 ) ) ;
#6 = UNCERTAINTY_MEASURE_WITH_UNIT (LENGTH_MEASURE( 1.000000000000000100E-005 ), #368, 'distance_accuracy_value', 'NONE');
#7 = CIRCLE ( 'NONE', #241, 0.04999999999999999600 ) ;
#8 = DIRECTION ( 'NONE',  ( -0.0000000000000000000, -0.0000000000000000000, -1.000000000000000000 ) ) ;
#9 = DIRECTION ( 'NONE',  ( 1.000000000000000000, 0.0000000000000000000, 0.0000000000000000000 ) ) ;
#10 = CARTESIAN_POINT ( 'NONE',  ( -0.08627507621756581900, 6.123233995736767900E-018, 2.000000000000000000 ) ) ;
#11 = ADVANCED_FACE ( 'NONE', ( #171 ), #344, .T. ) ;
#12 = CIRCLE ( 'NONE', #233, 1.000000000000000200 ) ;
#13 = CARTESIAN_POINT ( 'NONE',  ( -0.1362750762175658200, 0.0000000000000000000, 4.000000000000000000 ) ) ;
#14 = CLOSED_SHELL ( 'NONE', ( #75, #363, #328, #54, #391, #157, #226, #126, #11, #336, #275, #45, #103, #299 ) ) ;
#15 = DIRECTION ( 'NONE',  ( 1.000000000000000000, 0.0000000000000000000, 0.0000000000000000000 ) ) ;
#16 = DIRECTION ( 'NONE',  ( -0.0000000000000000000, -0.0000000000000000000, -1.000000000000000000 ) ) ;
#17 = APPLICATION_PROTOCOL_DEFINITION ( 'draft international standard', 'automotive_design', 1998, #56 ) ;
#18 = ORIENTED_EDGE ( 'NONE', *, *, #394, .T. ) ;
#19 = ORIENTED_EDGE ( 'NONE', *, *, #384, .F. ) ;
#20 = EDGE_LOOP ( 'NONE', ( #283, #93, #108, #310 ) ) ;
#21 = EDGE_CURVE ( 'NONE', #258, #40, #166, .T. ) ;
#22 = PRODUCT_CONTEXT ( 'NONE', #56, 'mechanical' ) ;
#23 = FACE_OUTER_BOUND ( 'NONE', #285, .T. ) ;
#24 = FACE_BOUND ( 'NONE', #279, .T. ) ;
#25 = CYLINDRICAL_SURFACE ( 'NONE', #298, 1.000000000000000200 ) ;
#26 = FACE_OUTER_BOUND ( 'NONE', #347, .T. ) ;
#27 = EDGE_LOOP ( 'NONE', ( #35, #277 ) ) ;
#28 = CYLINDRICAL_SURFACE ( 'NONE', #243, 0.04999999999999999600 ) ;
#29 = EDGE_CURVE ( 'NONE', #203, #225, #158, .T. ) ;
#30 = DIRECTION ( 'NONE',  ( 0.0000000000000000000, 0.0000000000000000000, 1.000000000000000000 ) ) ;
#31 = CARTESIAN_POINT ( 'NONE',  ( 0.0000000000000000000, 0.0000000000000000000, 0.7999999999999999300 ) ) ;
#32 = ORIENTED_EDGE ( 'NONE', *, *, #314, .F. ) ;
#33 = TOROIDAL_SURFACE ( 'NONE', #249, 0.2000000000000002100, 0.8000000000000000400 ) ;
#34 = CIRCLE ( 'NONE', #374, 1.000000000000000200 ) ;
#35 = ORIENTED_EDGE ( 'NONE', *, *, #376, .T. ) ;
#36 = DIRECTION ( 'NONE',  ( 1.000000000000000000, 0.0000000000000000000, -0.0000000000000000000 ) ) ;
#37 = DIRECTION ( 'NONE',  ( 0.0000000000000000000, 0.0000000000000000000, 1.000000000000000000 ) ) ;
#38 = SURFACE_SIDE_STYLE ('',( #133 ) ) ;
#39 = CARTESIAN_POINT ( 'NONE',  ( 1.000000000000000200, 1.224646799147353500E-016, 2.000000000000000000 ) ) ;
#40 = VERTEX_POINT ( 'NONE', #148 ) ;
#41 = CARTESIAN_POINT ( 'NONE',  ( 0.0000000000000000000, 0.0000000000000000000, 0.0000000000000000000 ) ) ;
#42 = CARTESIAN_POINT ( 'NONE',  ( -0.2000000000000002100, 7.347880794884120200E-017, 0.0000000000000000000 ) ) ;
#43 = ORIENTED_EDGE ( 'NONE', *, *, #402, .F. ) ;
#44 = DIRECTION ( 'NONE',  ( -1.000000000000000000, 0.0000000000000000000, 0.0000000000000000000 ) ) ;
#45 = ADVANCED_FACE ( 'NONE', ( #156 ), #256, .T. ) ;
#46 = CARTESIAN_POINT ( 'NONE',  ( -0.1862750762175658700, 0.0000000000000000000, 2.000000000000000000 ) ) ;
#47 = ORIENTED_EDGE ( 'NONE', *, *, #270, .T. ) ;
#48 = CYLINDRICAL_SURFACE ( 'NONE', #253, 0.04999999999999999600 ) ;
#49 = CIRCLE ( 'NONE', #95, 0.04999999999999999600 ) ;
#50 = DIRECTION ( 'NONE',  ( 1.000000000000000000, 0.0000000000000000000, 0.0000000000000000000 ) ) ;
#51 = DIRECTION ( 'NONE',  ( -1.000000000000000000, 0.0000000000000000000, 0.0000000000000000000 ) ) ;
#52 = UNCERTAINTY_MEASURE_WITH_UNIT (LENGTH_MEASURE( 1.000000000000000100E-005 ), #360, 'distance_accuracy_value', 'NONE');
#53 = ORIENTED_EDGE ( 'NONE', *, *, #21, .F. ) ;
#54 = ADVANCED_FACE ( 'NONE', ( #154 ), #139, .T. ) ;
#55 = ORIENTED_EDGE ( 'NONE', *, *, #372, .F. ) ;
#56 = APPLICATION_CONTEXT ( 'automotive_design' ) ;
#57 = APPLICATION_PROTOCOL_DEFINITION ( 'draft international standard', 'automotive_design', 1998, #242 ) ;
#58 = CYLINDRICAL_SURFACE ( 'NONE', #251, 0.04999999999999999600 ) ;
#59 = LINE ( 'NONE', #39, #111 ) ;
#60 = FACE_OUTER_BOUND ( 'NONE', #20, .T. ) ;
#61 = FACE_OUTER_BOUND ( 'NONE', #65, .T. ) ;
#62 = MANIFOLD_SOLID_BREP ( 'Í¹Ì¨-À­Éì2', #14 ) ;
#63 = EDGE_CURVE ( 'NONE', #197, #138, #82, .T. ) ;
#64 = DIRECTION ( 'NONE',  ( 1.000000000000000000, 0.0000000000000000000, 0.0000000000000000000 ) ) ;
#65 = EDGE_LOOP ( 'NONE', ( #210, #174 ) ) ;
#66 = LINE ( 'NONE', #119, #191 ) ;
#67 = FACE_OUTER_BOUND ( 'NONE', #105, .T. ) ;
#68 = DIRECTION ( 'NONE',  ( 1.000000000000000000, 0.0000000000000000000, 0.0000000000000000000 ) ) ;
#69 = CARTESIAN_POINT ( 'NONE',  ( 0.0000000000000000000, 0.0000000000000000000, 2.000000000000000000 ) ) ;
#70 = ORIENTED_EDGE ( 'NONE', *, *, #402, .T. ) ;
#71 = PLANE ( 'NONE',  #358 ) ;
#72 = CARTESIAN_POINT ( 'NONE',  ( -0.1862750762175658700, 0.0000000000000000000, 4.000000000000000000 ) ) ;
#73 = EDGE_LOOP ( 'NONE', ( #281, #55, #113, #306 ) ) ;
#74 = VERTEX_POINT ( 'NONE', #327 ) ;
#75 = ADVANCED_FACE ( 'NONE', ( #67 ), #58, .T. ) ;
#76 = SURFACE_STYLE_FILL_AREA ( #81 ) ;
#77 = VECTOR ( 'NONE', #92, 1000.000000000000000 ) ;
#78 = ORIENTED_EDGE ( 'NONE', *, *, #372, .T. ) ;
#79 = PRODUCT_DEFINITION_SHAPE ( 'NONE', 'NONE',  #212 ) ;
#80 = CARTESIAN_POINT ( 'NONE',  ( 0.1362337064312337500, 0.0000000000000000000, 2.000000000000000000 ) ) ;
#81 = FILL_AREA_STYLE ('',( #280 ) ) ;
#82 = LINE ( 'NONE', #312, #77 ) ;
#83 = EDGE_LOOP ( 'NONE', ( #78, #339 ) ) ;
#84 = CIRCLE ( 'NONE', #228, 0.04999999999999999600 ) ;
#85 = FACE_OUTER_BOUND ( 'NONE', #83, .T. ) ;
#86 = CARTESIAN_POINT ( 'NONE',  ( 0.0000000000000000000, 0.0000000000000000000, 1.200000000000000200 ) ) ;
#87 = ORIENTED_EDGE ( 'NONE', *, *, #318, .T. ) ;
#88 = ORIENTED_EDGE ( 'NONE', *, *, #385, .F. ) ;
#89 = VECTOR ( 'NONE', #271, 1000.000000000000000 ) ;
#90 = CARTESIAN_POINT ( 'NONE',  ( -1.000000000000000200, 0.0000000000000000000, 1.200000000000000200 ) ) ;
#91 = DIRECTION ( 'NONE',  ( -1.000000000000000000, 0.0000000000000000000, 0.0000000000000000000 ) ) ;
#92 = DIRECTION ( 'NONE',  ( -0.0000000000000000000, -0.0000000000000000000, -1.000000000000000000 ) ) ;
#93 = ORIENTED_EDGE ( 'NONE', *, *, #390, .T. ) ;
#94 = DIRECTION ( 'NONE',  ( 1.000000000000000000, 0.0000000000000000000, 0.0000000000000000000 ) ) ;
#95 = AXIS2_PLACEMENT_3D ( 'NONE', #329, #389, #325 ) ;
#96 = DIRECTION ( 'NONE',  ( -0.0000000000000000000, -0.0000000000000000000, -1.000000000000000000 ) ) ;
#97 = FILL_AREA_STYLE ('',( #218 ) ) ;
#98 = CARTESIAN_POINT ( 'NONE',  ( 0.1362337064312337500, 0.0000000000000000000, 2.000000000000000000 ) ) ;
#99 = CARTESIAN_POINT ( 'NONE',  ( 0.08623370643123373600, 0.0000000000000000000, 2.000000000000000000 ) ) ;
#100 = ORIENTED_EDGE ( 'NONE', *, *, #315, .T. ) ;
#101 = CARTESIAN_POINT ( 'NONE',  ( 0.2000000000000002100, 0.0000000000000000000, 0.0000000000000000000 ) ) ;
#102 = CIRCLE ( 'NONE', #239, 1.000000000000000200 ) ;
#103 = ADVANCED_FACE ( 'NONE', ( #136 ), #48, .T. ) ;
#104 = CARTESIAN_POINT ( 'NONE',  ( 0.0000000000000000000, 0.0000000000000000000, 0.7999999999999999300 ) ) ;
#105 = EDGE_LOOP ( 'NONE', ( #289, #116, #70, #141 ) ) ;
#106 = DIRECTION ( 'NONE',  ( 0.0000000000000000000, 0.0000000000000000000, 1.000000000000000000 ) ) ;
#107 = DIRECTION ( 'NONE',  ( 1.000000000000000000, 0.0000000000000000000, 0.0000000000000000000 ) ) ;
#108 = ORIENTED_EDGE ( 'NONE', *, *, #384, .T. ) ;
#109 = EDGE_CURVE ( 'NONE', #197, #302, #49, .T. ) ;
#110 = SURFACE_STYLE_USAGE ( .BOTH. , #309 ) ;
#111 = VECTOR ( 'NONE', #8, 1000.000000000000000 ) ;
#112 = ORIENTED_EDGE ( 'NONE', *, *, #29, .T. ) ;
#113 = ORIENTED_EDGE ( 'NONE', *, *, #404, .T. ) ;
#114 = ORIENTED_EDGE ( 'NONE', *, *, #370, .F. ) ;
#115 = FACE_OUTER_BOUND ( 'NONE', #192, .T. ) ;
#116 = ORIENTED_EDGE ( 'NONE', *, *, #63, .T. ) ;
#117 = DIRECTION ( 'NONE',  ( 0.0000000000000000000, -1.000000000000000000, 0.0000000000000000000 ) ) ;
#118 = DIRECTION ( 'NONE',  ( 1.000000000000000000, 0.0000000000000000000, -0.0000000000000000000 ) ) ;
#119 = CARTESIAN_POINT ( 'NONE',  ( -0.08627507621756583300, 6.123233995736766300E-018, 4.000000000000000000 ) ) ;
#120 = DIRECTION ( 'NONE',  ( 0.0000000000000000000, 0.0000000000000000000, 1.000000000000000000 ) ) ;
#121 = DIRECTION ( 'NONE',  ( 0.0000000000000000000, 0.0000000000000000000, 1.000000000000000000 ) ) ;
#122 = DIRECTION ( 'NONE',  ( 0.0000000000000000000, 0.0000000000000000000, 1.000000000000000000 ) ) ;
#123 = DIRECTION ( 'NONE',  ( -0.0000000000000000000, -0.0000000000000000000, -1.000000000000000000 ) ) ;
#124 = DIRECTION ( 'NONE',  ( -0.0000000000000000000, -0.0000000000000000000, -1.000000000000000000 ) ) ;
#125 = DIRECTION ( 'NONE',  ( 1.000000000000000000, 0.0000000000000000000, 0.0000000000000000000 ) ) ;
#126 = ADVANCED_FACE ( 'NONE', ( #61 ), #71, .F. ) ;
#127 = PRESENTATION_STYLE_ASSIGNMENT (( #387 ) ) ;
#128 = CIRCLE ( 'NONE', #255, 0.2000000000000002100 ) ;
#129 = CARTESIAN_POINT ( 'NONE',  ( -0.1362750762175658200, 0.0000000000000000000, 4.000000000000000000 ) ) ;
#130 = DIRECTION ( 'NONE',  ( 1.000000000000000000, 0.0000000000000000000, 0.0000000000000000000 ) ) ;
#131 = ORIENTED_EDGE ( 'NONE', *, *, #359, .F. ) ;
#132 = DIRECTION ( 'NONE',  ( 1.224646799147353200E-016, 1.000000000000000000, -0.0000000000000000000 ) ) ;
#133 = SURFACE_STYLE_FILL_AREA ( #97 ) ;
#134 = CARTESIAN_POINT ( 'NONE',  ( 0.0000000000000000000, 0.0000000000000000000, 0.0000000000000000000 ) ) ;
#135 =( NAMED_UNIT ( * ) PLANE_ANGLE_UNIT ( ) SI_UNIT ( $, .RADIAN. ) );
#136 = FACE_OUTER_BOUND ( 'NONE', #73, .T. ) ;
#137 = DIRECTION ( 'NONE',  ( 0.0000000000000000000, 0.0000000000000000000, 1.000000000000000000 ) ) ;
#138 = VERTEX_POINT ( 'NONE', #361 ) ;
#139 = TOROIDAL_SURFACE ( 'NONE', #382, 0.2000000000000002100, 0.8000000000000000400 ) ;
#140 = FACE_OUTER_BOUND ( 'NONE', #252, .T. ) ;
#141 = ORIENTED_EDGE ( 'NONE', *, *, #404, .F. ) ;
#142 = ORIENTED_EDGE ( 'NONE', *, *, #376, .F. ) ;
#143 = ORIENTED_EDGE ( 'NONE', *, *, #397, .F. ) ;
#144 = ORIENTED_EDGE ( 'NONE', *, *, #274, .F. ) ;
#145 = VECTOR ( 'NONE', #398, 1000.000000000000000 ) ;
#146 = CARTESIAN_POINT ( 'NONE',  ( -0.1362750762175658200, 0.0000000000000000000, 2.000000000000000000 ) ) ;
#147 = DIRECTION ( 'NONE',  ( -0.0000000000000000000, -0.0000000000000000000, -1.000000000000000000 ) ) ;
#148 = CARTESIAN_POINT ( 'NONE',  ( 1.000000000000000200, 1.224646799147353500E-016, 1.200000000000000200 ) ) ;
#149 = DIRECTION ( 'NONE',  ( 1.224646799147353200E-016, 1.000000000000000000, -0.0000000000000000000 ) ) ;
#150 = COLOUR_RGB ( '',1.000000000000000000, 1.000000000000000000, 1.000000000000000000 ) ;
#151 = DIRECTION ( 'NONE',  ( 1.000000000000000000, 0.0000000000000000000, 0.0000000000000000000 ) ) ;
#152 = CARTESIAN_POINT ( 'NONE',  ( -0.1362750762175658200, 0.0000000000000000000, 2.000000000000000000 ) ) ;
#153 = CARTESIAN_POINT ( 'NONE',  ( -1.000000000000000200, 0.0000000000000000000, 2.000000000000000000 ) ) ;
#154 = FACE_OUTER_BOUND ( 'NONE', #401, .T. ) ;
#155 = ORIENTED_EDGE ( 'NONE', *, *, #315, .F. ) ;
#156 = FACE_OUTER_BOUND ( 'NONE', #27, .T. ) ;
#157 = ADVANCED_FACE ( 'NONE', ( #60 ), #25, .T. ) ;
#158 = CIRCLE ( 'NONE', #305, 0.8000000000000000400 ) ;
#159 = CIRCLE ( 'NONE', #232, 0.2000000000000002100 ) ;
#160 = DIRECTION ( 'NONE',  ( 1.000000000000000000, 0.0000000000000000000, 0.0000000000000000000 ) ) ;
#161 = CIRCLE ( 'NONE', #247, 0.04999999999999999600 ) ;
#162 = CARTESIAN_POINT ( 'NONE',  ( 0.0000000000000000000, 0.0000000000000000000, 1.200000000000000200 ) ) ;
#163 = CARTESIAN_POINT ( 'NONE',  ( 0.08623370643123375000, 0.0000000000000000000, 4.000000000000000000 ) ) ;
#164 =( NAMED_UNIT ( * ) PLANE_ANGLE_UNIT ( ) SI_UNIT ( $, .RADIAN. ) );
#165 = CIRCLE ( 'NONE', #334, 0.04999999999999999600 ) ;
#166 = CIRCLE ( 'NONE', #322, 1.000000000000000200 ) ;
#167 = ORIENTED_EDGE ( 'NONE', *, *, #373, .F. ) ;
#168 = LINE ( 'NONE', #153, #89 ) ;
#169 =( GEOMETRIC_REPRESENTATION_CONTEXT ( 3 ) GLOBAL_UNCERTAINTY_ASSIGNED_CONTEXT ( ( #52 ) ) GLOBAL_UNIT_ASSIGNED_CONTEXT ( ( #360, #297, #187 ) ) REPRESENTATION_CONTEXT ( 'NONE', 'WORKASPACE' ) );
#170 = CARTESIAN_POINT ( 'NONE',  ( 0.0000000000000000000, 0.0000000000000000000, 1.200000000000000200 ) ) ;
#171 = FACE_OUTER_BOUND ( 'NONE', #264, .T. ) ;
#172 = VERTEX_POINT ( 'NONE', #72 ) ;
#173 = CARTESIAN_POINT ( 'NONE',  ( -0.1362750762175658200, 0.0000000000000000000, 4.000000000000000000 ) ) ;
#174 = ORIENTED_EDGE ( 'NONE', *, *, #397, .T. ) ;
#175 = VERTEX_POINT ( 'NONE', #10 ) ;
#176 = CARTESIAN_POINT ( 'NONE',  ( 0.0000000000000000000, 0.0000000000000000000, 1.200000000000000200 ) ) ;
#177 = DIRECTION ( 'NONE',  ( 0.0000000000000000000, 0.0000000000000000000, 1.000000000000000000 ) ) ;
#178 = DIRECTION ( 'NONE',  ( 1.000000000000000000, 0.0000000000000000000, 0.0000000000000000000 ) ) ;
#179 = ORIENTED_EDGE ( 'NONE', *, *, #378, .F. ) ;
#180 = CARTESIAN_POINT ( 'NONE',  ( 0.08623370643123373600, 0.0000000000000000000, 4.000000000000000000 ) ) ;
#181 = ORIENTED_EDGE ( 'NONE', *, *, #259, .F. ) ;
#182 = DIRECTION ( 'NONE',  ( -0.0000000000000000000, -0.0000000000000000000, -1.000000000000000000 ) ) ;
#183 = CARTESIAN_POINT ( 'NONE',  ( 0.0000000000000000000, 0.0000000000000000000, 0.7999999999999999300 ) ) ;
#184 = CARTESIAN_POINT ( 'NONE',  ( 0.0000000000000000000, 0.0000000000000000000, 2.000000000000000000 ) ) ;
#185 = DIRECTION ( 'NONE',  ( 1.000000000000000000, 0.0000000000000000000, 0.0000000000000000000 ) ) ;
#186 = ORIENTED_EDGE ( 'NONE', *, *, #314, .T. ) ;
#187 =( NAMED_UNIT ( * ) SI_UNIT ( $, .STERADIAN. ) SOLID_ANGLE_UNIT ( ) );
#188 = VERTEX_POINT ( 'NONE', #46 ) ;
#189 = DIRECTION ( 'NONE',  ( 0.0000000000000000000, 0.0000000000000000000, 1.000000000000000000 ) ) ;
#190 = VERTEX_POINT ( 'NONE', #403 ) ;
#191 = VECTOR ( 'NONE', #147, 1000.000000000000000 ) ;
#192 = EDGE_LOOP ( 'NONE', ( #167, #100, #223, #316 ) ) ;
#193 = DIRECTION ( 'NONE',  ( -0.0000000000000000000, -0.0000000000000000000, -1.000000000000000000 ) ) ;
#194 = DIRECTION ( 'NONE',  ( 1.000000000000000000, 0.0000000000000000000, 0.0000000000000000000 ) ) ;
#195 = CARTESIAN_POINT ( 'NONE',  ( 0.0000000000000000000, 0.0000000000000000000, 0.0000000000000000000 ) ) ;
#196 = ADVANCED_BREP_SHAPE_REPRESENTATION ( 'Nozzle thermistor', ( #62, #214 ), #224 ) ;
#197 = VERTEX_POINT ( 'NONE', #1 ) ;
#198 = DIRECTION ( 'NONE',  ( 1.000000000000000000, 0.0000000000000000000, 0.0000000000000000000 ) ) ;
#199 = VERTEX_POINT ( 'NONE', #42 ) ;
#200 = VERTEX_POINT ( 'NONE', #99 ) ;
#201 = FACE_OUTER_BOUND ( 'NONE', #235, .T. ) ;
#202 = DIRECTION ( 'NONE',  ( -0.0000000000000000000, -0.0000000000000000000, -1.000000000000000000 ) ) ;
#203 = VERTEX_POINT ( 'NONE', #101 ) ;
#204 = VERTEX_POINT ( 'NONE', #350 ) ;
#205 = ORIENTED_EDGE ( 'NONE', *, *, #359, .T. ) ;
#206 = PRODUCT_RELATED_PRODUCT_CATEGORY ( 'part', '', ( #5 ) ) ;
#207 = ORIENTED_EDGE ( 'NONE', *, *, #319, .T. ) ;
#208 = CARTESIAN_POINT ( 'NONE',  ( 0.0000000000000000000, 0.0000000000000000000, 2.000000000000000000 ) ) ;
#209 = CIRCLE ( 'NONE', #337, 0.8000000000000000400 ) ;
#210 = ORIENTED_EDGE ( 'NONE', *, *, #380, .T. ) ;
#211 = PRODUCT_DEFINITION_FORMATION_WITH_SPECIFIED_SOURCE ( 'ÈÎºÎ', '', #5, .NOT_KNOWN. ) ;
#212 = PRODUCT_DEFINITION ( 'Î´Öª', '', #211, #267 ) ;
#213 = PLANE ( 'NONE',  #261 ) ;
#214 = AXIS2_PLACEMENT_3D ( 'NONE', #134, #400, #198 ) ;
#215 = CARTESIAN_POINT ( 'NONE',  ( 0.1362337064312337500, 0.0000000000000000000, 4.000000000000000000 ) ) ;
#216 = DIRECTION ( 'NONE',  ( 1.000000000000000000, 0.0000000000000000000, 0.0000000000000000000 ) ) ;
#217 =( GEOMETRIC_REPRESENTATION_CONTEXT ( 3 ) GLOBAL_UNCERTAINTY_ASSIGNED_CONTEXT ( ( #313 ) ) GLOBAL_UNIT_ASSIGNED_CONTEXT ( ( #338, #135, #369 ) ) REPRESENTATION_CONTEXT ( 'NONE', 'WORKASPACE' ) );
#218 = FILL_AREA_STYLE_COLOUR ( '', #150 ) ;
#219 = MECHANICAL_DESIGN_GEOMETRIC_PRESENTATION_REPRESENTATION (  '', ( #222 ), #217 ) ;
#220 = DIRECTION ( 'NONE',  ( 1.000000000000000000, 0.0000000000000000000, 0.0000000000000000000 ) ) ;
#221 = PRESENTATION_LAYER_ASSIGNMENT (  '', '', ( #222 ) ) ;
#222 = STYLED_ITEM ( 'NONE', ( #303 ), #196 ) ;
#223 = ORIENTED_EDGE ( 'NONE', *, *, #259, .T. ) ;
#224 =( GEOMETRIC_REPRESENTATION_CONTEXT ( 3 ) GLOBAL_UNCERTAINTY_ASSIGNED_CONTEXT ( ( #6 ) ) GLOBAL_UNIT_ASSIGNED_CONTEXT ( ( #368, #164, #399 ) ) REPRESENTATION_CONTEXT ( 'NONE', 'WORKASPACE' ) );
#225 = VERTEX_POINT ( 'NONE', #3 ) ;
#226 = ADVANCED_FACE ( 'NONE', ( #2, #24, #26 ), #377, .T. ) ;
#227 = ORIENTED_EDGE ( 'NONE', *, *, #21, .T. ) ;
#228 = AXIS2_PLACEMENT_3D ( 'NONE', #80, #308, #107 ) ;
#229 = AXIS2_PLACEMENT_3D ( 'NONE', #366, #365, #51 ) ;
#230 = AXIS2_PLACEMENT_3D ( 'NONE', #335, #132, #367 ) ;
#231 = DIRECTION ( 'NONE',  ( 0.0000000000000000000, 0.0000000000000000000, 1.000000000000000000 ) ) ;
#232 = AXIS2_PLACEMENT_3D ( 'NONE', #195, #16, #238 ) ;
#233 = AXIS2_PLACEMENT_3D ( 'NONE', #162, #396, #194 ) ;
#234 = AXIS2_PLACEMENT_3D ( 'NONE', #304, #106, #333 ) ;
#235 = EDGE_LOOP ( 'NONE', ( #286, #294, #112, #179 ) ) ;
#236 = CARTESIAN_POINT ( 'NONE',  ( -0.2000000000000002100, 7.347880794884120200E-017, 2.000000000000000000 ) ) ;
#237 = AXIS2_PLACEMENT_3D ( 'NONE', #395, #193, #15 ) ;
#238 = DIRECTION ( 'NONE',  ( 1.000000000000000000, 0.0000000000000000000, 0.0000000000000000000 ) ) ;
#239 = AXIS2_PLACEMENT_3D ( 'NONE', #104, #331, #130 ) ;
#240 = AXIS2_PLACEMENT_3D ( 'NONE', #13, #231, #50 ) ;
#241 = AXIS2_PLACEMENT_3D ( 'NONE', #129, #364, #160 ) ;
#242 = APPLICATION_CONTEXT ( 'automotive_design' ) ;
#243 = AXIS2_PLACEMENT_3D ( 'NONE', #357, #96, #293 ) ;
#244 = ORIENTED_EDGE ( 'NONE', *, *, #318, .F. ) ;
#245 = AXIS2_PLACEMENT_3D ( 'NONE', #98, #326, #125 ) ;
#246 = COLOUR_RGB ( '',1.000000000000000000, 1.000000000000000000, 1.000000000000000000 ) ;
#247 = AXIS2_PLACEMENT_3D ( 'NONE', #388, #189, #9 ) ;
#248 = AXIS2_PLACEMENT_3D ( 'NONE', #183, #121, #216 ) ;
#249 = AXIS2_PLACEMENT_3D ( 'NONE', #356, #37, #151 ) ;
#250 = DIRECTION ( 'NONE',  ( 1.000000000000000000, 0.0000000000000000000, 0.0000000000000000000 ) ) ;
#251 = AXIS2_PLACEMENT_3D ( 'NONE', #295, #324, #268 ) ;
#252 = EDGE_LOOP ( 'NONE', ( #143, #18, #307, #273 ) ) ;
#253 = AXIS2_PLACEMENT_3D ( 'NONE', #215, #123, #44 ) ;
#254 = AXIS2_PLACEMENT_3D ( 'NONE', #152, #386, #185 ) ;
#255 = AXIS2_PLACEMENT_3D ( 'NONE', #69, #291, #94 ) ;
#256 = PLANE ( 'NONE',  #342 ) ;
#257 = AXIS2_PLACEMENT_3D ( 'NONE', #323, #117, #353 ) ;
#258 = VERTEX_POINT ( 'NONE', #90 ) ;
#259 = EDGE_CURVE ( 'NONE', #175, #188, #165, .T. ) ;
#260 = DIRECTION ( 'NONE',  ( 1.000000000000000000, 0.0000000000000000000, -0.0000000000000000000 ) ) ;
#261 = AXIS2_PLACEMENT_3D ( 'NONE', #381, #177, #36 ) ;
#262 = DIRECTION ( 'NONE',  ( 0.0000000000000000000, 0.0000000000000000000, 1.000000000000000000 ) ) ;
#263 = CIRCLE ( 'NONE', #257, 0.8000000000000000400 ) ;
#264 = EDGE_LOOP ( 'NONE', ( #32, #354, #282, #88 ) ) ;
#265 = CARTESIAN_POINT ( 'NONE',  ( -0.1862750762175658400, 0.0000000000000000000, 4.000000000000000000 ) ) ;
#266 = CIRCLE ( 'NONE', #245, 0.04999999999999999600 ) ;
#267 = PRODUCT_DEFINITION_CONTEXT ( 'detailed design', #242, 'design' ) ;
#268 = DIRECTION ( 'NONE',  ( -1.000000000000000000, 0.0000000000000000000, 0.0000000000000000000 ) ) ;
#269 = DIRECTION ( 'NONE',  ( -1.000000000000000000, 0.0000000000000000000, 0.0000000000000000000 ) ) ;
#270 = EDGE_CURVE ( 'NONE', #225, #204, #34, .T. ) ;
#271 = DIRECTION ( 'NONE',  ( -0.0000000000000000000, -0.0000000000000000000, -1.000000000000000000 ) ) ;
#272 = ORIENTED_EDGE ( 'NONE', *, *, #348, .T. ) ;
#273 = ORIENTED_EDGE ( 'NONE', *, *, #29, .F. ) ;
#274 = EDGE_CURVE ( 'NONE', #40, #74, #263, .T. ) ;
#275 = ADVANCED_FACE ( 'NONE', ( #343 ), #301, .T. ) ;
#276 = CIRCLE ( 'NONE', #234, 0.2000000000000002100 ) ;
#277 = ORIENTED_EDGE ( 'NONE', *, *, #373, .T. ) ;
#278 = EDGE_LOOP ( 'NONE', ( #114, #43 ) ) ;
#279 = EDGE_LOOP ( 'NONE', ( #131, #181 ) ) ;
#280 = FILL_AREA_STYLE_COLOUR ( '', #246 ) ;
#281 = ORIENTED_EDGE ( 'NONE', *, *, #63, .F. ) ;
#282 = ORIENTED_EDGE ( 'NONE', *, *, #274, .T. ) ;
#283 = ORIENTED_EDGE ( 'NONE', *, *, #348, .F. ) ;
#284 = DIRECTION ( 'NONE',  ( 0.0000000000000000000, 0.0000000000000000000, -1.000000000000000000 ) ) ;
#285 = EDGE_LOOP ( 'NONE', ( #227, #272, #47, #19 ) ) ;
#286 = ORIENTED_EDGE ( 'NONE', *, *, #394, .F. ) ;
#287 = LINE ( 'NONE', #265, #393 ) ;
#288 = CARTESIAN_POINT ( 'NONE',  ( -0.1362750762175658200, 0.0000000000000000000, 4.000000000000000000 ) ) ;
#289 = ORIENTED_EDGE ( 'NONE', *, *, #109, .F. ) ;
#290 = CARTESIAN_POINT ( 'NONE',  ( 0.2000000000000002100, 0.0000000000000000000, 0.7999999999999999300 ) ) ;
#291 = DIRECTION ( 'NONE',  ( 0.0000000000000000000, 0.0000000000000000000, 1.000000000000000000 ) ) ;
#292 = DIRECTION ( 'NONE',  ( 0.0000000000000000000, -1.000000000000000000, 0.0000000000000000000 ) ) ;
#293 = DIRECTION ( 'NONE',  ( -1.000000000000000000, 0.0000000000000000000, 0.0000000000000000000 ) ) ;
#294 = ORIENTED_EDGE ( 'NONE', *, *, #380, .F. ) ;
#295 = CARTESIAN_POINT ( 'NONE',  ( 0.1362337064312337500, 0.0000000000000000000, 4.000000000000000000 ) ) ;
#296 = DIRECTION ( 'NONE',  ( 1.000000000000000000, 0.0000000000000000000, -0.0000000000000000000 ) ) ;
#297 =( NAMED_UNIT ( * ) PLANE_ANGLE_UNIT ( ) SI_UNIT ( $, .RADIAN. ) );
#298 = AXIS2_PLACEMENT_3D ( 'NONE', #184, #124, #269 ) ;
#299 = ADVANCED_FACE ( 'NONE', ( #85 ), #213, .T. ) ;
#300 = DIRECTION ( 'NONE',  ( 0.0000000000000000000, 0.0000000000000000000, 1.000000000000000000 ) ) ;
#301 = CYLINDRICAL_SURFACE ( 'NONE', #320, 0.04999999999999999600 ) ;
#302 = VERTEX_POINT ( 'NONE', #180 ) ;
#303 = PRESENTATION_STYLE_ASSIGNMENT (( #110 ) ) ;
#304 = CARTESIAN_POINT ( 'NONE',  ( 0.0000000000000000000, 0.0000000000000000000, 2.000000000000000000 ) ) ;
#305 = AXIS2_PLACEMENT_3D ( 'NONE', #290, #292, #284 ) ;
#306 = ORIENTED_EDGE ( 'NONE', *, *, #370, .T. ) ;
#307 = ORIENTED_EDGE ( 'NONE', *, *, #270, .F. ) ;
#308 = DIRECTION ( 'NONE',  ( 0.0000000000000000000, 0.0000000000000000000, 1.000000000000000000 ) ) ;
#309 = SURFACE_SIDE_STYLE ('',( #76 ) ) ;
#310 = ORIENTED_EDGE ( 'NONE', *, *, #378, .T. ) ;
#311 = TOROIDAL_SURFACE ( 'NONE', #248, 0.2000000000000002100, 0.8000000000000000400 ) ;
#312 = CARTESIAN_POINT ( 'NONE',  ( 0.1862337064312337400, 6.123233995736766300E-018, 4.000000000000000000 ) ) ;
#313 = UNCERTAINTY_MEASURE_WITH_UNIT (LENGTH_MEASURE( 1.000000000000000100E-005 ), #338, 'distance_accuracy_value', 'NONE');
#314 = EDGE_CURVE ( 'NONE', #258, #392, #209, .T. ) ;
#315 = EDGE_CURVE ( 'NONE', #190, #175, #66, .T. ) ;
#316 = ORIENTED_EDGE ( 'NONE', *, *, #319, .F. ) ;
#317 = AXIS2_PLACEMENT_3D ( 'NONE', #208, #30, #260 ) ;
#318 = EDGE_CURVE ( 'NONE', #74, #392, #128, .T. ) ;
#319 = EDGE_CURVE ( 'NONE', #172, #188, #287, .T. ) ;
#320 = AXIS2_PLACEMENT_3D ( 'NONE', #288, #321, #91 ) ;
#321 = DIRECTION ( 'NONE',  ( -0.0000000000000000000, -0.0000000000000000000, -1.000000000000000000 ) ) ;
#322 = AXIS2_PLACEMENT_3D ( 'NONE', #176, #202, #250 ) ;
#323 = CARTESIAN_POINT ( 'NONE',  ( 0.2000000000000002100, 0.0000000000000000000, 1.200000000000000200 ) ) ;
#324 = DIRECTION ( 'NONE',  ( -0.0000000000000000000, -0.0000000000000000000, -1.000000000000000000 ) ) ;
#325 = DIRECTION ( 'NONE',  ( 1.000000000000000000, 0.0000000000000000000, 0.0000000000000000000 ) ) ;
#326 = DIRECTION ( 'NONE',  ( 0.0000000000000000000, 0.0000000000000000000, 1.000000000000000000 ) ) ;
#327 = CARTESIAN_POINT ( 'NONE',  ( 0.2000000000000002100, 0.0000000000000000000, 2.000000000000000000 ) ) ;
#328 = ADVANCED_FACE ( 'NONE', ( #140 ), #33, .T. ) ;
#329 = CARTESIAN_POINT ( 'NONE',  ( 0.1362337064312337500, 0.0000000000000000000, 4.000000000000000000 ) ) ;
#330 = LINE ( 'NONE', #163, #145 ) ;
#331 = DIRECTION ( 'NONE',  ( 0.0000000000000000000, 0.0000000000000000000, 1.000000000000000000 ) ) ;
#332 = SHAPE_DEFINITION_REPRESENTATION ( #79, #196 ) ;
#333 = DIRECTION ( 'NONE',  ( 1.000000000000000000, 0.0000000000000000000, 0.0000000000000000000 ) ) ;
#334 = AXIS2_PLACEMENT_3D ( 'NONE', #146, #379, #178 ) ;
#335 = CARTESIAN_POINT ( 'NONE',  ( -0.2000000000000002100, 2.449293598294709000E-017, 0.7999999999999999300 ) ) ;
#336 = ADVANCED_FACE ( 'NONE', ( #201 ), #311, .T. ) ;
#337 = AXIS2_PLACEMENT_3D ( 'NONE', #355, #149, #383 ) ;
#338 =( LENGTH_UNIT ( ) NAMED_UNIT ( * ) SI_UNIT ( .MILLI., .METRE. ) );
#339 = ORIENTED_EDGE ( 'NONE', *, *, #109, .T. ) ;
#340 = AXIS2_PLACEMENT_3D ( 'NONE', #170, #137, #64 ) ;
#341 = CIRCLE ( 'NONE', #230, 0.8000000000000000400 ) ;
#342 = AXIS2_PLACEMENT_3D ( 'NONE', #173, #122, #118 ) ;
#343 = FACE_OUTER_BOUND ( 'NONE', #362, .T. ) ;
#344 = TOROIDAL_SURFACE ( 'NONE', #340, 0.2000000000000002100, 0.8000000000000000400 ) ;
#345 = MECHANICAL_DESIGN_GEOMETRIC_PRESENTATION_REPRESENTATION (  '', ( #352 ), #169 ) ;
#346 = CIRCLE ( 'NONE', #240, 0.04999999999999999600 ) ;
#347 = EDGE_LOOP ( 'NONE', ( #87, #375 ) ) ;
#348 = EDGE_CURVE ( 'NONE', #40, #225, #59, .T. ) ;
#349 = CIRCLE ( 'NONE', #237, 0.2000000000000002100 ) ;
#350 = CARTESIAN_POINT ( 'NONE',  ( -1.000000000000000200, 0.0000000000000000000, 0.7999999999999999300 ) ) ;
#351 = PRESENTATION_LAYER_ASSIGNMENT (  '', '', ( #352 ) ) ;
#352 = STYLED_ITEM ( 'NONE', ( #127 ), #62 ) ;
#353 = DIRECTION ( 'NONE',  ( 0.0000000000000000000, 0.0000000000000000000, -1.000000000000000000 ) ) ;
#354 = ORIENTED_EDGE ( 'NONE', *, *, #390, .F. ) ;
#355 = CARTESIAN_POINT ( 'NONE',  ( -0.2000000000000002100, 2.449293598294709000E-017, 1.200000000000000200 ) ) ;
#356 = CARTESIAN_POINT ( 'NONE',  ( 0.0000000000000000000, 0.0000000000000000000, 0.7999999999999999300 ) ) ;
#357 = CARTESIAN_POINT ( 'NONE',  ( -0.1362750762175658200, 0.0000000000000000000, 4.000000000000000000 ) ) ;
#358 = AXIS2_PLACEMENT_3D ( 'NONE', #41, #300, #296 ) ;
#359 = EDGE_CURVE ( 'NONE', #188, #175, #371, .T. ) ;
#360 =( LENGTH_UNIT ( ) NAMED_UNIT ( * ) SI_UNIT ( .MILLI., .METRE. ) );
#361 = CARTESIAN_POINT ( 'NONE',  ( 0.1862337064312337700, 6.123233995736767900E-018, 2.000000000000000000 ) ) ;
#362 = EDGE_LOOP ( 'NONE', ( #155, #142, #207, #205 ) ) ;
#363 = ADVANCED_FACE ( 'NONE', ( #115 ), #28, .T. ) ;
#364 = DIRECTION ( 'NONE',  ( 0.0000000000000000000, 0.0000000000000000000, 1.000000000000000000 ) ) ;
#365 = DIRECTION ( 'NONE',  ( -0.0000000000000000000, -0.0000000000000000000, -1.000000000000000000 ) ) ;
#366 = CARTESIAN_POINT ( 'NONE',  ( 0.0000000000000000000, 0.0000000000000000000, 2.000000000000000000 ) ) ;
#367 = DIRECTION ( 'NONE',  ( -1.000000000000000000, 1.224646799147353000E-016, 0.0000000000000000000 ) ) ;
#368 =( LENGTH_UNIT ( ) NAMED_UNIT ( * ) SI_UNIT ( .MILLI., .METRE. ) );
#369 =( NAMED_UNIT ( * ) SI_UNIT ( $, .STERADIAN. ) SOLID_ANGLE_UNIT ( ) );
#370 = EDGE_CURVE ( 'NONE', #200, #138, #266, .T. ) ;
#371 = CIRCLE ( 'NONE', #254, 0.04999999999999999600 ) ;
#372 = EDGE_CURVE ( 'NONE', #302, #197, #161, .T. ) ;
#373 = EDGE_CURVE ( 'NONE', #190, #172, #7, .T. ) ;
#374 = AXIS2_PLACEMENT_3D ( 'NONE', #31, #262, #68 ) ;
#375 = ORIENTED_EDGE ( 'NONE', *, *, #385, .T. ) ;
#376 = EDGE_CURVE ( 'NONE', #172, #190, #346, .T. ) ;
#377 = PLANE ( 'NONE',  #317 ) ;
#378 = EDGE_CURVE ( 'NONE', #204, #225, #102, .T. ) ;
#379 = DIRECTION ( 'NONE',  ( 0.0000000000000000000, 0.0000000000000000000, 1.000000000000000000 ) ) ;
#380 = EDGE_CURVE ( 'NONE', #203, #199, #349, .T. ) ;
#381 = CARTESIAN_POINT ( 'NONE',  ( 0.1362337064312337500, 0.0000000000000000000, 4.000000000000000000 ) ) ;
#382 = AXIS2_PLACEMENT_3D ( 'NONE', #86, #120, #220 ) ;
#383 = DIRECTION ( 'NONE',  ( -1.000000000000000000, 1.224646799147353000E-016, 0.0000000000000000000 ) ) ;
#384 = EDGE_CURVE ( 'NONE', #258, #204, #168, .T. ) ;
#385 = EDGE_CURVE ( 'NONE', #392, #74, #276, .T. ) ;
#386 = DIRECTION ( 'NONE',  ( 0.0000000000000000000, 0.0000000000000000000, 1.000000000000000000 ) ) ;
#387 = SURFACE_STYLE_USAGE ( .BOTH. , #38 ) ;
#388 = CARTESIAN_POINT ( 'NONE',  ( 0.1362337064312337500, 0.0000000000000000000, 4.000000000000000000 ) ) ;
#389 = DIRECTION ( 'NONE',  ( 0.0000000000000000000, 0.0000000000000000000, 1.000000000000000000 ) ) ;
#390 = EDGE_CURVE ( 'NONE', #40, #258, #12, .T. ) ;
#391 = ADVANCED_FACE ( 'NONE', ( #23 ), #4, .T. ) ;
#392 = VERTEX_POINT ( 'NONE', #236 ) ;
#393 = VECTOR ( 'NONE', #182, 1000.000000000000000 ) ;
#394 = EDGE_CURVE ( 'NONE', #199, #204, #341, .T. ) ;
#395 = CARTESIAN_POINT ( 'NONE',  ( 0.0000000000000000000, 0.0000000000000000000, 0.0000000000000000000 ) ) ;
#396 = DIRECTION ( 'NONE',  ( -0.0000000000000000000, -0.0000000000000000000, -1.000000000000000000 ) ) ;
#397 = EDGE_CURVE ( 'NONE', #199, #203, #159, .T. ) ;
#398 = DIRECTION ( 'NONE',  ( -0.0000000000000000000, -0.0000000000000000000, -1.000000000000000000 ) ) ;
#399 =( NAMED_UNIT ( * ) SI_UNIT ( $, .STERADIAN. ) SOLID_ANGLE_UNIT ( ) );
#400 = DIRECTION ( 'NONE',  ( 0.0000000000000000000, 0.0000000000000000000, 1.000000000000000000 ) ) ;
#401 = EDGE_LOOP ( 'NONE', ( #53, #186, #244, #144 ) ) ;
#402 = EDGE_CURVE ( 'NONE', #138, #200, #84, .T. ) ;
#403 = CARTESIAN_POINT ( 'NONE',  ( -0.08627507621756581900, 6.123233995736767900E-018, 4.000000000000000000 ) ) ;
#404 = EDGE_CURVE ( 'NONE', #302, #200, #330, .T. ) ;
ENDSEC;
END-ISO-10303-21;
