ISO-10303-21;
HEADER;
FILE_DESCRIPTION (( 'STEP AP214' ),
    '1' );
FILE_NAME ('M3 Split Washer.step',
    '2018-06-21T12:58:30',
    ( 'User' ),
    ( 'china' ),
    'SwSTEP 2.0',
    'SolidWorks 2016',
    '' );
FILE_SCHEMA (( 'AUTOMOTIVE_DESIGN' ));
ENDSEC;

DATA;
#1 =( NAMED_UNIT ( * ) SI_UNIT ( $, .STERADIAN. ) SOLID_ANGLE_UNIT ( ) );
#2 = ORIENTED_EDGE ( 'NONE', *, *, #318, .F. ) ;
#3 = CARTESIAN_POINT ( 'NONE',  ( 1.537042614893939300, 1.000000000000000000, 0.2000000000000000100 ) ) ;
#4 = AXIS2_PLACEMENT_3D ( 'NONE', #203, #209, #14 ) ;
#5 = DIRECTION ( 'NONE',  ( -1.000000000000000000, -0.0000000000000000000, -0.0000000000000000000 ) ) ;
#6 = CARTESIAN_POINT ( 'NONE',  ( 1.000000000000000000, 0.0000000000000000000, -0.2000000000000000100 ) ) ;
#7 = ADVANCED_FACE ( 'NONE', ( #36 ), #183, .F. ) ;
#8 = PRESENTATION_STYLE_ASSIGNMENT (( #130 ) ) ;
#9 = SURFACE_STYLE_FILL_AREA ( #102 ) ;
#10 = DIRECTION ( 'NONE',  ( 0.0000000000000000000, 0.0000000000000000000, 1.000000000000000000 ) ) ;
#11 = COLOUR_RGB ( '',1.000000000000000000, 0.5999999999999999800, 0.0000000000000000000 ) ;
#12 = ADVANCED_FACE ( 'NONE', ( #189 ), #179, .T. ) ;
#13 = VERTEX_POINT ( 'NONE', #339 ) ;
#14 = DIRECTION ( 'NONE',  ( 0.0000000000000000000, 0.0000000000000000000, -1.000000000000000000 ) ) ;
#15 = DIRECTION ( 'NONE',  ( -0.0000000000000000000, -1.000000000000000000, -0.0000000000000000000 ) ) ;
#16 = DIRECTION ( 'NONE',  ( -0.0000000000000000000, 0.0000000000000000000, 1.000000000000000000 ) ) ;
#17 = CARTESIAN_POINT ( 'NONE',  ( 2.816687638038912100E-016, 0.0000000000000000000, 2.299999999999999800 ) ) ;
#18 = DIRECTION ( 'NONE',  ( 0.0000000000000000000, 1.000000000000000000, 0.0000000000000000000 ) ) ;
#19 = PLANE ( 'NONE',  #290 ) ;
#20 = AXIS2_PLACEMENT_3D ( 'NONE', #121, #16, #53 ) ;
#21 = CARTESIAN_POINT ( 'NONE',  ( 0.0000000000000000000, 0.0000000000000000000, 0.0000000000000000000 ) ) ;
#22 = CYLINDRICAL_SURFACE ( 'NONE', #268, 1.549999999999999800 ) ;
#23 = FACE_OUTER_BOUND ( 'NONE', #252, .T. ) ;
#24 = FACE_OUTER_BOUND ( 'NONE', #220, .T. ) ;
#25 = CARTESIAN_POINT ( 'NONE',  ( 2.291287847477920400, 1.000000000000000000, -0.2000000000000000100 ) ) ;
#26 =( NAMED_UNIT ( * ) PLANE_ANGLE_UNIT ( ) SI_UNIT ( $, .RADIAN. ) );
#27 = DIRECTION ( 'NONE',  ( 0.0000000000000000000, 0.0000000000000000000, 1.000000000000000000 ) ) ;
#28 = EDGE_LOOP ( 'NONE', ( #237, #216, #42, #54 ) ) ;
#29 = ORIENTED_EDGE ( 'NONE', *, *, #245, .T. ) ;
#30 = ORIENTED_EDGE ( 'NONE', *, *, #144, .F. ) ;
#31 = DIRECTION ( 'NONE',  ( 0.0000000000000000000, 1.000000000000000000, 0.0000000000000000000 ) ) ;
#32 = VERTEX_POINT ( 'NONE', #68 ) ;
#33 = ADVANCED_FACE ( 'NONE', ( #23 ), #341, .F. ) ;
#34 = ORIENTED_EDGE ( 'NONE', *, *, #261, .T. ) ;
#35 = CARTESIAN_POINT ( 'NONE',  ( 0.0000000000000000000, 1.000000000000000000, 0.0000000000000000000 ) ) ;
#36 = FACE_OUTER_BOUND ( 'NONE', #321, .T. ) ;
#37 = ORIENTED_EDGE ( 'NONE', *, *, #258, .F. ) ;
#38 = ORIENTED_EDGE ( 'NONE', *, *, #40, .T. ) ;
#39 = CARTESIAN_POINT ( 'NONE',  ( 1.898202538678397200E-016, 1.000000000000000000, 1.549999999999999800 ) ) ;
#40 = EDGE_CURVE ( 'NONE', #181, #164, #180, .T. ) ;
#41 = ORIENTED_EDGE ( 'NONE', *, *, #304, .F. ) ;
#42 = ORIENTED_EDGE ( 'NONE', *, *, #258, .T. ) ;
#43 = FACE_OUTER_BOUND ( 'NONE', #207, .T. ) ;
#44 = CARTESIAN_POINT ( 'NONE',  ( 0.0000000000000000000, 1.000000000000000000, 0.0000000000000000000 ) ) ;
#45 = VECTOR ( 'NONE', #73, 1000.000000000000000 ) ;
#46 = CIRCLE ( 'NONE', #273, 1.549999999999999800 ) ;
#47 = CIRCLE ( 'NONE', #275, 1.549999999999999800 ) ;
#48 = DIRECTION ( 'NONE',  ( 0.0000000000000000000, 1.000000000000000000, 0.0000000000000000000 ) ) ;
#49 = PRODUCT ( 'M3 Split Washer', 'M3 Split Washer', '', ( #59 ) ) ;
#50 = DIRECTION ( 'NONE',  ( 0.0000000000000000000, -0.0000000000000000000, 1.000000000000000000 ) ) ;
#51 = CARTESIAN_POINT ( 'NONE',  ( 2.291287847477920400, 1.000000000000000000, 0.2000000000000000100 ) ) ;
#52 = AXIS2_PLACEMENT_3D ( 'NONE', #186, #329, #191 ) ;
#53 = DIRECTION ( 'NONE',  ( 1.000000000000000000, 0.0000000000000000000, 0.0000000000000000000 ) ) ;
#54 = ORIENTED_EDGE ( 'NONE', *, *, #308, .T. ) ;
#55 = DIRECTION ( 'NONE',  ( 0.0000000000000000000, 0.0000000000000000000, -1.000000000000000000 ) ) ;
#56 = UNCERTAINTY_MEASURE_WITH_UNIT (LENGTH_MEASURE( 1.000000000000000100E-005 ), #331, 'distance_accuracy_value', 'NONE');
#57 = CARTESIAN_POINT ( 'NONE',  ( 0.0000000000000000000, 0.0000000000000000000, -1.549999999999999800 ) ) ;
#58 = DIRECTION ( 'NONE',  ( 0.0000000000000000000, 0.0000000000000000000, 1.000000000000000000 ) ) ;
#59 = PRODUCT_CONTEXT ( 'NONE', #265, 'mechanical' ) ;
#60 = CARTESIAN_POINT ( 'NONE',  ( 0.0000000000000000000, 1.000000000000000000, -1.549999999999999800 ) ) ;
#61 = DIRECTION ( 'NONE',  ( 0.0000000000000000000, 1.000000000000000000, 0.0000000000000000000 ) ) ;
#62 = AXIS2_PLACEMENT_3D ( 'NONE', #324, #323, #50 ) ;
#63 = PRESENTATION_STYLE_ASSIGNMENT (( #327 ) ) ;
#64 = COLOUR_RGB ( '',1.000000000000000000, 0.5999999999999999800, 0.0000000000000000000 ) ;
#65 = LINE ( 'NONE', #74, #45 ) ;
#66 = VECTOR ( 'NONE', #257, 1000.000000000000000 ) ;
#67 = DIRECTION ( 'NONE',  ( 0.0000000000000000000, 0.0000000000000000000, -1.000000000000000000 ) ) ;
#68 = CARTESIAN_POINT ( 'NONE',  ( 1.537042614893939600, 1.000000000000000000, -0.2000000000000000400 ) ) ;
#69 = DIRECTION ( 'NONE',  ( 0.0000000000000000000, 1.000000000000000000, 0.0000000000000000000 ) ) ;
#70 = CIRCLE ( 'NONE', #272, 2.299999999999999800 ) ;
#71 = ORIENTED_EDGE ( 'NONE', *, *, #246, .T. ) ;
#72 = DIRECTION ( 'NONE',  ( -0.0000000000000000000, -1.000000000000000000, -0.0000000000000000000 ) ) ;
#73 = DIRECTION ( 'NONE',  ( -0.0000000000000000000, -1.000000000000000000, -0.0000000000000000000 ) ) ;
#74 = CARTESIAN_POINT ( 'NONE',  ( 1.537042614893939300, 1.000000000000000000, -0.2000000000000000100 ) ) ;
#75 = VECTOR ( 'NONE', #95, 1000.000000000000000 ) ;
#76 = LINE ( 'NONE', #225, #66 ) ;
#77 = SURFACE_STYLE_FILL_AREA ( #297 ) ;
#78 = APPLICATION_PROTOCOL_DEFINITION ( 'draft international standard', 'automotive_design', 1998, #233 ) ;
#79 = VECTOR ( 'NONE', #295, 1000.000000000000000 ) ;
#80 = LINE ( 'NONE', #325, #75 ) ;
#81 = CLOSED_SHELL ( 'NONE', ( #240, #277, #12, #110, #243, #7, #218, #336, #139, #33 ) ) ;
#82 = VECTOR ( 'NONE', #184, 1000.000000000000000 ) ;
#83 = DIRECTION ( 'NONE',  ( 0.0000000000000000000, 0.0000000000000000000, 1.000000000000000000 ) ) ;
#84 = LINE ( 'NONE', #51, #79 ) ;
#85 = LINE ( 'NONE', #39, #82 ) ;
#86 = ORIENTED_EDGE ( 'NONE', *, *, #304, .T. ) ;
#87 = CIRCLE ( 'NONE', #284, 2.299999999999999800 ) ;
#88 = ORIENTED_EDGE ( 'NONE', *, *, #310, .T. ) ;
#89 = CIRCLE ( 'NONE', #285, 2.299999999999999800 ) ;
#90 = ORIENTED_EDGE ( 'NONE', *, *, #328, .T. ) ;
#91 = CARTESIAN_POINT ( 'NONE',  ( 0.0000000000000000000, 0.0000000000000000000, -2.299999999999999800 ) ) ;
#92 = CIRCLE ( 'NONE', #283, 1.549999999999999800 ) ;
#93 = VECTOR ( 'NONE', #335, 1000.000000000000000 ) ;
#94 = CARTESIAN_POINT ( 'NONE',  ( 0.0000000000000000000, 1.000000000000000000, 0.0000000000000000000 ) ) ;
#95 = DIRECTION ( 'NONE',  ( -0.0000000000000000000, -1.000000000000000000, -0.0000000000000000000 ) ) ;
#96 = DIRECTION ( 'NONE',  ( 0.0000000000000000000, 0.0000000000000000000, -1.000000000000000000 ) ) ;
#97 = DIRECTION ( 'NONE',  ( 0.0000000000000000000, 1.000000000000000000, 0.0000000000000000000 ) ) ;
#98 = CIRCLE ( 'NONE', #288, 2.299999999999999800 ) ;
#99 = VECTOR ( 'NONE', #61, 1000.000000000000000 ) ;
#100 = DIRECTION ( 'NONE',  ( -1.000000000000000000, 0.0000000000000000000, -0.0000000000000000000 ) ) ;
#101 = DIRECTION ( 'NONE',  ( 0.0000000000000000000, 1.000000000000000000, 0.0000000000000000000 ) ) ;
#102 = FILL_AREA_STYLE ('',( #330 ) ) ;
#103 = LINE ( 'NONE', #276, #93 ) ;
#104 = CYLINDRICAL_SURFACE ( 'NONE', #286, 1.549999999999999800 ) ;
#105 = LINE ( 'NONE', #3, #99 ) ;
#106 = VECTOR ( 'NONE', #5, 1000.000000000000000 ) ;
#107 = FACE_OUTER_BOUND ( 'NONE', #174, .T. ) ;
#108 = DIRECTION ( 'NONE',  ( 0.0000000000000000000, 1.000000000000000000, 0.0000000000000000000 ) ) ;
#109 = LINE ( 'NONE', #6, #106 ) ;
#110 = ADVANCED_FACE ( 'NONE', ( #24 ), #165, .T. ) ;
#111 = VECTOR ( 'NONE', #15, 1000.000000000000000 ) ;
#112 = CIRCLE ( 'NONE', #301, 2.299999999999999800 ) ;
#113 = VECTOR ( 'NONE', #241, 1000.000000000000000 ) ;
#114 = CIRCLE ( 'NONE', #287, 1.549999999999999800 ) ;
#115 = LINE ( 'NONE', #280, #113 ) ;
#116 = CARTESIAN_POINT ( 'NONE',  ( 1.537042614893939600, 0.0000000000000000000, 0.2000000000000000400 ) ) ;
#117 = CYLINDRICAL_SURFACE ( 'NONE', #293, 1.549999999999999800 ) ;
#118 = LINE ( 'NONE', #25, #111 ) ;
#119 = CYLINDRICAL_SURFACE ( 'NONE', #296, 2.299999999999999800 ) ;
#120 = CARTESIAN_POINT ( 'NONE',  ( 1.898202538678397200E-016, 1.000000000000000000, 1.549999999999999800 ) ) ;
#121 = CARTESIAN_POINT ( 'NONE',  ( 1.000000000000000000, 0.0000000000000000000, 0.2000000000000000100 ) ) ;
#122 = VERTEX_POINT ( 'NONE', #128 ) ;
#123 = CARTESIAN_POINT ( 'NONE',  ( 2.816687638038912100E-016, 1.000000000000000000, 2.299999999999999800 ) ) ;
#124 = SURFACE_SIDE_STYLE ('',( #77 ) ) ;
#125 = FACE_OUTER_BOUND ( 'NONE', #193, .T. ) ;
#126 = ORIENTED_EDGE ( 'NONE', *, *, #313, .T. ) ;
#127 = PLANE ( 'NONE',  #20 ) ;
#128 = CARTESIAN_POINT ( 'NONE',  ( 0.0000000000000000000, 1.000000000000000000, -2.299999999999999800 ) ) ;
#129 =( LENGTH_UNIT ( ) NAMED_UNIT ( * ) SI_UNIT ( .MILLI., .METRE. ) );
#130 = SURFACE_STYLE_USAGE ( .BOTH. , #305 ) ;
#131 = VERTEX_POINT ( 'NONE', #123 ) ;
#132 = ORIENTED_EDGE ( 'NONE', *, *, #292, .F. ) ;
#133 = VECTOR ( 'NONE', #317, 1000.000000000000000 ) ;
#134 = FACE_OUTER_BOUND ( 'NONE', #320, .T. ) ;
#135 = ORIENTED_EDGE ( 'NONE', *, *, #318, .T. ) ;
#136 = VERTEX_POINT ( 'NONE', #17 ) ;
#137 = CIRCLE ( 'NONE', #256, 1.549999999999999800 ) ;
#138 = CARTESIAN_POINT ( 'NONE',  ( 0.0000000000000000000, 0.0000000000000000000, 0.0000000000000000000 ) ) ;
#139 = ADVANCED_FACE ( 'NONE', ( #171 ), #127, .F. ) ;
#140 = FACE_OUTER_BOUND ( 'NONE', #28, .T. ) ;
#141 = VERTEX_POINT ( 'NONE', #120 ) ;
#142 = ORIENTED_EDGE ( 'NONE', *, *, #144, .T. ) ;
#143 = ORIENTED_EDGE ( 'NONE', *, *, #172, .T. ) ;
#144 = EDGE_CURVE ( 'NONE', #164, #206, #177, .T. ) ;
#145 = ORIENTED_EDGE ( 'NONE', *, *, #246, .F. ) ;
#146 = ORIENTED_EDGE ( 'NONE', *, *, #308, .F. ) ;
#147 = ORIENTED_EDGE ( 'NONE', *, *, #298, .F. ) ;
#148 = LINE ( 'NONE', #60, #133 ) ;
#149 = DIRECTION ( 'NONE',  ( 0.0000000000000000000, 0.0000000000000000000, 1.000000000000000000 ) ) ;
#150 = DIRECTION ( 'NONE',  ( 0.0000000000000000000, 0.0000000000000000000, 1.000000000000000000 ) ) ;
#151 = DIRECTION ( 'NONE',  ( 0.0000000000000000000, 1.000000000000000000, 0.0000000000000000000 ) ) ;
#152 = ORIENTED_EDGE ( 'NONE', *, *, #312, .T. ) ;
#153 = VERTEX_POINT ( 'NONE', #299 ) ;
#154 = ORIENTED_EDGE ( 'NONE', *, *, #185, .T. ) ;
#155 = DIRECTION ( 'NONE',  ( 0.0000000000000000000, 1.000000000000000000, 0.0000000000000000000 ) ) ;
#156 = FILL_AREA_STYLE_COLOUR ( '', #64 ) ;
#157 = CARTESIAN_POINT ( 'NONE',  ( 0.0000000000000000000, 1.000000000000000000, 0.0000000000000000000 ) ) ;
#158 =( LENGTH_UNIT ( ) NAMED_UNIT ( * ) SI_UNIT ( .MILLI., .METRE. ) );
#159 = CARTESIAN_POINT ( 'NONE',  ( 0.0000000000000000000, 1.000000000000000000, 0.0000000000000000000 ) ) ;
#160 = ORIENTED_EDGE ( 'NONE', *, *, #309, .F. ) ;
#161 = CARTESIAN_POINT ( 'NONE',  ( 0.0000000000000000000, 0.0000000000000000000, 0.0000000000000000000 ) ) ;
#162 = VERTEX_POINT ( 'NONE', #289 ) ;
#163 =( NAMED_UNIT ( * ) PLANE_ANGLE_UNIT ( ) SI_UNIT ( $, .RADIAN. ) );
#164 = VERTEX_POINT ( 'NONE', #116 ) ;
#165 = CYLINDRICAL_SURFACE ( 'NONE', #4, 2.299999999999999800 ) ;
#166 = UNCERTAINTY_MEASURE_WITH_UNIT (LENGTH_MEASURE( 1.000000000000000100E-005 ), #158, 'distance_accuracy_value', 'NONE');
#167 = DIRECTION ( 'NONE',  ( 0.0000000000000000000, 0.0000000000000000000, 1.000000000000000000 ) ) ;
#168 = ORIENTED_EDGE ( 'NONE', *, *, #40, .F. ) ;
#169 = ORIENTED_EDGE ( 'NONE', *, *, #319, .T. ) ;
#170 = DIRECTION ( 'NONE',  ( -0.0000000000000000000, -1.000000000000000000, -0.0000000000000000000 ) ) ;
#171 = FACE_OUTER_BOUND ( 'NONE', #197, .T. ) ;
#172 = EDGE_CURVE ( 'NONE', #343, #122, #173, .T. ) ;
#173 = CIRCLE ( 'NONE', #242, 2.299999999999999800 ) ;
#174 = EDGE_LOOP ( 'NONE', ( #154, #29, #322, #2 ) ) ;
#175 = ORIENTED_EDGE ( 'NONE', *, *, #307, .T. ) ;
#176 = CARTESIAN_POINT ( 'NONE',  ( 0.0000000000000000000, 1.000000000000000000, 0.0000000000000000000 ) ) ;
#177 = LINE ( 'NONE', #326, #182 ) ;
#178 = ORIENTED_EDGE ( 'NONE', *, *, #261, .F. ) ;
#179 = CYLINDRICAL_SURFACE ( 'NONE', #52, 2.299999999999999800 ) ;
#180 = CIRCLE ( 'NONE', #192, 1.549999999999999800 ) ;
#181 = VERTEX_POINT ( 'NONE', #262 ) ;
#182 = VECTOR ( 'NONE', #294, 1000.000000000000000 ) ;
#183 = PLANE ( 'NONE',  #62 ) ;
#184 = DIRECTION ( 'NONE',  ( -0.0000000000000000000, -1.000000000000000000, -0.0000000000000000000 ) ) ;
#185 = EDGE_CURVE ( 'NONE', #32, #190, #137, .T. ) ;
#186 = CARTESIAN_POINT ( 'NONE',  ( 0.0000000000000000000, 1.000000000000000000, 0.0000000000000000000 ) ) ;
#187 = CARTESIAN_POINT ( 'NONE',  ( 0.0000000000000000000, 0.0000000000000000000, 0.0000000000000000000 ) ) ;
#188 =( NAMED_UNIT ( * ) SI_UNIT ( $, .STERADIAN. ) SOLID_ANGLE_UNIT ( ) );
#189 = FACE_OUTER_BOUND ( 'NONE', #200, .T. ) ;
#190 = VERTEX_POINT ( 'NONE', #253 ) ;
#191 = DIRECTION ( 'NONE',  ( 0.0000000000000000000, 0.0000000000000000000, -1.000000000000000000 ) ) ;
#192 = AXIS2_PLACEMENT_3D ( 'NONE', #208, #48, #149 ) ;
#193 = EDGE_LOOP ( 'NONE', ( #86, #311, #212, #269 ) ) ;
#194 = DIRECTION ( 'NONE',  ( 0.0000000000000000000, 1.000000000000000000, 0.0000000000000000000 ) ) ;
#195 = DIRECTION ( 'NONE',  ( 0.0000000000000000000, 1.000000000000000000, 0.0000000000000000000 ) ) ;
#196 = CARTESIAN_POINT ( 'NONE',  ( 0.0000000000000000000, 1.000000000000000000, 0.0000000000000000000 ) ) ;
#197 = EDGE_LOOP ( 'NONE', ( #30, #332, #71, #267 ) ) ;
#198 = VERTEX_POINT ( 'NONE', #291 ) ;
#199 = ORIENTED_EDGE ( 'NONE', *, *, #328, .F. ) ;
#200 = EDGE_LOOP ( 'NONE', ( #204, #337, #90, #88 ) ) ;
#201 = ORIENTED_EDGE ( 'NONE', *, *, #306, .T. ) ;
#202 = DIRECTION ( 'NONE',  ( 0.0000000000000000000, 0.0000000000000000000, 1.000000000000000000 ) ) ;
#203 = CARTESIAN_POINT ( 'NONE',  ( 0.0000000000000000000, 1.000000000000000000, 0.0000000000000000000 ) ) ;
#204 = ORIENTED_EDGE ( 'NONE', *, *, #307, .F. ) ;
#205 = DIRECTION ( 'NONE',  ( 0.0000000000000000000, 0.0000000000000000000, 1.000000000000000000 ) ) ;
#206 = VERTEX_POINT ( 'NONE', #226 ) ;
#207 = EDGE_LOOP ( 'NONE', ( #160, #244, #147, #168 ) ) ;
#208 = CARTESIAN_POINT ( 'NONE',  ( 0.0000000000000000000, 0.0000000000000000000, 0.0000000000000000000 ) ) ;
#209 = DIRECTION ( 'NONE',  ( -0.0000000000000000000, -1.000000000000000000, -0.0000000000000000000 ) ) ;
#210 = DIRECTION ( 'NONE',  ( 0.0000000000000000000, 1.000000000000000000, 0.0000000000000000000 ) ) ;
#211 =( NAMED_UNIT ( * ) SI_UNIT ( $, .STERADIAN. ) SOLID_ANGLE_UNIT ( ) );
#212 = ORIENTED_EDGE ( 'NONE', *, *, #312, .F. ) ;
#213 = DIRECTION ( 'NONE',  ( 1.000000000000000000, 0.0000000000000000000, 0.0000000000000000000 ) ) ;
#214 = DIRECTION ( 'NONE',  ( 0.0000000000000000000, 0.0000000000000000000, -1.000000000000000000 ) ) ;
#215 = CARTESIAN_POINT ( 'NONE',  ( 0.0000000000000000000, 1.000000000000000000, 0.0000000000000000000 ) ) ;
#216 = ORIENTED_EDGE ( 'NONE', *, *, #172, .F. ) ;
#217 = PRODUCT_DEFINITION_SHAPE ( 'NONE', 'NONE',  #249 ) ;
#218 = ADVANCED_FACE ( 'NONE', ( #140 ), #119, .T. ) ;
#219 = ORIENTED_EDGE ( 'NONE', *, *, #303, .F. ) ;
#220 = EDGE_LOOP ( 'NONE', ( #234, #334, #126, #34 ) ) ;
#221 = DIRECTION ( 'NONE',  ( -0.0000000000000000000, -1.000000000000000000, -0.0000000000000000000 ) ) ;
#222 = DIRECTION ( 'NONE',  ( 0.0000000000000000000, 1.000000000000000000, 0.0000000000000000000 ) ) ;
#223 = CARTESIAN_POINT ( 'NONE',  ( 0.0000000000000000000, 1.000000000000000000, 0.0000000000000000000 ) ) ;
#224 = CARTESIAN_POINT ( 'NONE',  ( 0.0000000000000000000, 0.0000000000000000000, 0.0000000000000000000 ) ) ;
#225 = CARTESIAN_POINT ( 'NONE',  ( 2.816687638038912100E-016, 1.000000000000000000, 2.299999999999999800 ) ) ;
#226 = CARTESIAN_POINT ( 'NONE',  ( 2.291287847477920400, 0.0000000000000000000, 0.2000000000000000100 ) ) ;
#227 = ORIENTED_EDGE ( 'NONE', *, *, #303, .T. ) ;
#228 = CARTESIAN_POINT ( 'NONE',  ( 1.000000000000000000, 0.0000000000000000000, -0.2000000000000000100 ) ) ;
#229 = DIRECTION ( 'NONE',  ( 0.0000000000000000000, 0.0000000000000000000, -1.000000000000000000 ) ) ;
#230 = VERTEX_POINT ( 'NONE', #57 ) ;
#231 = PRODUCT_DEFINITION_CONTEXT ( 'detailed design', #233, 'design' ) ;
#232 = APPLICATION_PROTOCOL_DEFINITION ( 'draft international standard', 'automotive_design', 1998, #265 ) ;
#233 = APPLICATION_CONTEXT ( 'automotive_design' ) ;
#234 = ORIENTED_EDGE ( 'NONE', *, *, #314, .F. ) ;
#235 = SHAPE_DEFINITION_REPRESENTATION ( #217, #333 ) ;
#236 = VERTEX_POINT ( 'NONE', #91 ) ;
#237 = ORIENTED_EDGE ( 'NONE', *, *, #313, .F. ) ;
#238 = DIRECTION ( 'NONE',  ( 0.0000000000000000000, -0.0000000000000000000, 1.000000000000000000 ) ) ;
#239 = AXIS2_PLACEMENT_3D ( 'NONE', #228, #67, #100 ) ;
#240 = ADVANCED_FACE ( 'NONE', ( #125 ), #117, .F. ) ;
#241 = DIRECTION ( 'NONE',  ( 1.000000000000000000, 0.0000000000000000000, 0.0000000000000000000 ) ) ;
#242 = AXIS2_PLACEMENT_3D ( 'NONE', #223, #222, #202 ) ;
#243 = ADVANCED_FACE ( 'NONE', ( #134 ), #19, .T. ) ;
#244 = ORIENTED_EDGE ( 'NONE', *, *, #316, .T. ) ;
#245 = EDGE_CURVE ( 'NONE', #190, #230, #148, .T. ) ;
#246 = EDGE_CURVE ( 'NONE', #198, #13, #115, .T. ) ;
#247 = PRODUCT_RELATED_PRODUCT_CATEGORY ( 'part', '', ( #49 ) ) ;
#248 = PRODUCT_DEFINITION_FORMATION_WITH_SPECIFIED_SOURCE ( 'ÈÎºÎ', '', #49, .NOT_KNOWN. ) ;
#249 = PRODUCT_DEFINITION ( 'Î´Öª', '', #248, #231 ) ;
#250 = AXIS2_PLACEMENT_3D ( 'NONE', #161, #27, #213 ) ;
#251 = ORIENTED_EDGE ( 'NONE', *, *, #292, .T. ) ;
#252 = EDGE_LOOP ( 'NONE', ( #227, #135, #132, #37 ) ) ;
#253 = CARTESIAN_POINT ( 'NONE',  ( 0.0000000000000000000, 1.000000000000000000, -1.549999999999999800 ) ) ;
#254 =( GEOMETRIC_REPRESENTATION_CONTEXT ( 3 ) GLOBAL_UNCERTAINTY_ASSIGNED_CONTEXT ( ( #56 ) ) GLOBAL_UNIT_ASSIGNED_CONTEXT ( ( #331, #163, #1 ) ) REPRESENTATION_CONTEXT ( 'NONE', 'WORKASPACE' ) );
#255 = DIRECTION ( 'NONE',  ( 0.0000000000000000000, 0.0000000000000000000, 1.000000000000000000 ) ) ;
#256 = AXIS2_PLACEMENT_3D ( 'NONE', #157, #155, #150 ) ;
#257 = DIRECTION ( 'NONE',  ( -0.0000000000000000000, -1.000000000000000000, -0.0000000000000000000 ) ) ;
#258 = EDGE_CURVE ( 'NONE', #343, #162, #118, .T. ) ;
#259 = MECHANICAL_DESIGN_GEOMETRIC_PRESENTATION_REPRESENTATION (  '', ( #266 ), #254 ) ;
#260 = CARTESIAN_POINT ( 'NONE',  ( 0.0000000000000000000, 1.000000000000000000, 0.0000000000000000000 ) ) ;
#261 = EDGE_CURVE ( 'NONE', #236, #136, #112, .T. ) ;
#262 = CARTESIAN_POINT ( 'NONE',  ( 1.898202538678397200E-016, 0.0000000000000000000, 1.549999999999999800 ) ) ;
#263 = CARTESIAN_POINT ( 'NONE',  ( 0.0000000000000000000, 0.0000000000000000000, 0.0000000000000000000 ) ) ;
#264 = PRESENTATION_LAYER_ASSIGNMENT (  '', '', ( #266 ) ) ;
#265 = APPLICATION_CONTEXT ( 'automotive_design' ) ;
#266 = STYLED_ITEM ( 'NONE', ( #8 ), #333 ) ;
#267 = ORIENTED_EDGE ( 'NONE', *, *, #310, .F. ) ;
#268 = AXIS2_PLACEMENT_3D ( 'NONE', #342, #345, #229 ) ;
#269 = ORIENTED_EDGE ( 'NONE', *, *, #245, .F. ) ;
#270 = ORIENTED_EDGE ( 'NONE', *, *, #316, .F. ) ;
#271 =( GEOMETRIC_REPRESENTATION_CONTEXT ( 3 ) GLOBAL_UNCERTAINTY_ASSIGNED_CONTEXT ( ( #274 ) ) GLOBAL_UNIT_ASSIGNED_CONTEXT ( ( #129, #26, #211 ) ) REPRESENTATION_CONTEXT ( 'NONE', 'WORKASPACE' ) );
#272 = AXIS2_PLACEMENT_3D ( 'NONE', #263, #101, #302 ) ;
#273 = AXIS2_PLACEMENT_3D ( 'NONE', #21, #210, #58 ) ;
#274 = UNCERTAINTY_MEASURE_WITH_UNIT (LENGTH_MEASURE( 1.000000000000000100E-005 ), #129, 'distance_accuracy_value', 'NONE');
#275 = AXIS2_PLACEMENT_3D ( 'NONE', #260, #97, #300 ) ;
#276 = CARTESIAN_POINT ( 'NONE',  ( 1.000000000000000000, 1.000000000000000000, -0.2000000000000000100 ) ) ;
#277 = ADVANCED_FACE ( 'NONE', ( #107 ), #104, .F. ) ;
#278 =( GEOMETRIC_REPRESENTATION_CONTEXT ( 3 ) GLOBAL_UNCERTAINTY_ASSIGNED_CONTEXT ( ( #166 ) ) GLOBAL_UNIT_ASSIGNED_CONTEXT ( ( #158, #344, #188 ) ) REPRESENTATION_CONTEXT ( 'NONE', 'WORKASPACE' ) );
#279 = MECHANICAL_DESIGN_GEOMETRIC_PRESENTATION_REPRESENTATION (  '', ( #282 ), #278 ) ;
#280 = CARTESIAN_POINT ( 'NONE',  ( 1.000000000000000000, 1.000000000000000000, 0.2000000000000000100 ) ) ;
#281 = PRESENTATION_LAYER_ASSIGNMENT (  '', '', ( #282 ) ) ;
#282 = STYLED_ITEM ( 'NONE', ( #63 ), #315 ) ;
#283 = AXIS2_PLACEMENT_3D ( 'NONE', #187, #18, #205 ) ;
#284 = AXIS2_PLACEMENT_3D ( 'NONE', #224, #69, #255 ) ;
#285 = AXIS2_PLACEMENT_3D ( 'NONE', #176, #151, #340 ) ;
#286 = AXIS2_PLACEMENT_3D ( 'NONE', #196, #170, #214 ) ;
#287 = AXIS2_PLACEMENT_3D ( 'NONE', #215, #195, #167 ) ;
#288 = AXIS2_PLACEMENT_3D ( 'NONE', #35, #31, #10 ) ;
#289 = CARTESIAN_POINT ( 'NONE',  ( 2.291287847477920400, 0.0000000000000000000, -0.2000000000000000100 ) ) ;
#290 = AXIS2_PLACEMENT_3D ( 'NONE', #44, #194, #238 ) ;
#291 = CARTESIAN_POINT ( 'NONE',  ( 1.537042614893939300, 1.000000000000000000, 0.2000000000000000100 ) ) ;
#292 = EDGE_CURVE ( 'NONE', #162, #153, #109, .T. ) ;
#293 = AXIS2_PLACEMENT_3D ( 'NONE', #159, #72, #55 ) ;
#294 = DIRECTION ( 'NONE',  ( 1.000000000000000000, 0.0000000000000000000, 0.0000000000000000000 ) ) ;
#295 = DIRECTION ( 'NONE',  ( 0.0000000000000000000, 1.000000000000000000, 0.0000000000000000000 ) ) ;
#296 = AXIS2_PLACEMENT_3D ( 'NONE', #94, #221, #96 ) ;
#297 = FILL_AREA_STYLE ('',( #156 ) ) ;
#298 = EDGE_CURVE ( 'NONE', #164, #198, #105, .T. ) ;
#299 = CARTESIAN_POINT ( 'NONE',  ( 1.537042614893939300, 0.0000000000000000000, -0.2000000000000000100 ) ) ;
#300 = DIRECTION ( 'NONE',  ( 0.0000000000000000000, 0.0000000000000000000, 1.000000000000000000 ) ) ;
#301 = AXIS2_PLACEMENT_3D ( 'NONE', #138, #108, #83 ) ;
#302 = DIRECTION ( 'NONE',  ( 0.0000000000000000000, 0.0000000000000000000, 1.000000000000000000 ) ) ;
#303 = EDGE_CURVE ( 'NONE', #343, #32, #103, .T. ) ;
#304 = EDGE_CURVE ( 'NONE', #190, #141, #114, .T. ) ;
#305 = SURFACE_SIDE_STYLE ('',( #9 ) ) ;
#306 = EDGE_CURVE ( 'NONE', #122, #131, #98, .T. ) ;
#307 = EDGE_CURVE ( 'NONE', #131, #13, #89, .T. ) ;
#308 = EDGE_CURVE ( 'NONE', #162, #236, #87, .T. ) ;
#309 = EDGE_CURVE ( 'NONE', #141, #181, #85, .T. ) ;
#310 = EDGE_CURVE ( 'NONE', #206, #13, #84, .T. ) ;
#311 = ORIENTED_EDGE ( 'NONE', *, *, #309, .T. ) ;
#312 = EDGE_CURVE ( 'NONE', #230, #181, #92, .T. ) ;
#313 = EDGE_CURVE ( 'NONE', #122, #236, #80, .T. ) ;
#314 = EDGE_CURVE ( 'NONE', #131, #136, #76, .T. ) ;
#315 = MANIFOLD_SOLID_BREP ( 'ÇÐ³ý-À­Éì1', #81 ) ;
#316 = EDGE_CURVE ( 'NONE', #141, #198, #47, .T. ) ;
#317 = DIRECTION ( 'NONE',  ( -0.0000000000000000000, -1.000000000000000000, -0.0000000000000000000 ) ) ;
#318 = EDGE_CURVE ( 'NONE', #32, #153, #65, .T. ) ;
#319 = EDGE_CURVE ( 'NONE', #153, #230, #46, .T. ) ;
#320 = EDGE_LOOP ( 'NONE', ( #219, #143, #201, #175, #145, #270, #41, #338 ) ) ;
#321 = EDGE_LOOP ( 'NONE', ( #146, #251, #169, #152, #38, #142, #199, #178 ) ) ;
#322 = ORIENTED_EDGE ( 'NONE', *, *, #319, .F. ) ;
#323 = DIRECTION ( 'NONE',  ( 0.0000000000000000000, 1.000000000000000000, 0.0000000000000000000 ) ) ;
#324 = CARTESIAN_POINT ( 'NONE',  ( 0.0000000000000000000, 0.0000000000000000000, 0.0000000000000000000 ) ) ;
#325 = CARTESIAN_POINT ( 'NONE',  ( 0.0000000000000000000, 1.000000000000000000, -2.299999999999999800 ) ) ;
#326 = CARTESIAN_POINT ( 'NONE',  ( 1.000000000000000000, 0.0000000000000000000, 0.2000000000000000100 ) ) ;
#327 = SURFACE_STYLE_USAGE ( .BOTH. , #124 ) ;
#328 = EDGE_CURVE ( 'NONE', #136, #206, #70, .T. ) ;
#329 = DIRECTION ( 'NONE',  ( -0.0000000000000000000, -1.000000000000000000, -0.0000000000000000000 ) ) ;
#330 = FILL_AREA_STYLE_COLOUR ( '', #11 ) ;
#331 =( LENGTH_UNIT ( ) NAMED_UNIT ( * ) SI_UNIT ( .MILLI., .METRE. ) );
#332 = ORIENTED_EDGE ( 'NONE', *, *, #298, .T. ) ;
#333 = ADVANCED_BREP_SHAPE_REPRESENTATION ( 'M3 Split Washer', ( #315, #250 ), #271 ) ;
#334 = ORIENTED_EDGE ( 'NONE', *, *, #306, .F. ) ;
#335 = DIRECTION ( 'NONE',  ( -1.000000000000000000, -0.0000000000000000000, -0.0000000000000000000 ) ) ;
#336 = ADVANCED_FACE ( 'NONE', ( #43 ), #22, .F. ) ;
#337 = ORIENTED_EDGE ( 'NONE', *, *, #314, .T. ) ;
#338 = ORIENTED_EDGE ( 'NONE', *, *, #185, .F. ) ;
#339 = CARTESIAN_POINT ( 'NONE',  ( 2.291287847477920400, 1.000000000000000000, 0.2000000000000000100 ) ) ;
#340 = DIRECTION ( 'NONE',  ( 0.0000000000000000000, 0.0000000000000000000, 1.000000000000000000 ) ) ;
#341 = PLANE ( 'NONE',  #239 ) ;
#342 = CARTESIAN_POINT ( 'NONE',  ( 0.0000000000000000000, 1.000000000000000000, 0.0000000000000000000 ) ) ;
#343 = VERTEX_POINT ( 'NONE', #346 ) ;
#344 =( NAMED_UNIT ( * ) PLANE_ANGLE_UNIT ( ) SI_UNIT ( $, .RADIAN. ) );
#345 = DIRECTION ( 'NONE',  ( -0.0000000000000000000, -1.000000000000000000, -0.0000000000000000000 ) ) ;
#346 = CARTESIAN_POINT ( 'NONE',  ( 2.291287847477920400, 1.000000000000000000, -0.2000000000000000100 ) ) ;
ENDSEC;
END-ISO-10303-21;
