ISO-10303-21;
HEADER;
FILE_DESCRIPTION (( 'STEP AP214' ),
    '1' );
FILE_NAME ('F688 pillow.step',
    '2018-06-21T12:58:04',
    ( 'User' ),
    ( 'china' ),
    'SwSTEP 2.0',
    'SolidWorks 2016',
    '' );
FILE_SCHEMA (( 'AUTOMOTIVE_DESIGN' ));
ENDSEC;

DATA;
#1 = VERTEX_POINT ( 'NONE', #342 ) ;
#2 = EDGE_LOOP ( 'NONE', ( #67, #99, #186, #30 ) ) ;
#3 = VERTEX_POINT ( 'NONE', #341 ) ;
#4 = ORIENTED_EDGE ( 'NONE', *, *, #326, .F. ) ;
#5 = FACE_OUTER_BOUND ( 'NONE', #314, .T. ) ;
#6 = FACE_OUTER_BOUND ( 'NONE', #29, .T. ) ;
#7 = ORIENTED_EDGE ( 'NONE', *, *, #156, .T. ) ;
#8 = ORIENTED_EDGE ( 'NONE', *, *, #231, .F. ) ;
#9 = COLOUR_RGB ( '',0.5921568627450980400, 0.6666666666666666300, 0.6823529411764706100 ) ;
#10 = ORIENTED_EDGE ( 'NONE', *, *, #164, .F. ) ;
#11 =( GEOMETRIC_REPRESENTATION_CONTEXT ( 3 ) GLOBAL_UNCERTAINTY_ASSIGNED_CONTEXT ( ( #147 ) ) GLOBAL_UNIT_ASSIGNED_CONTEXT ( ( #117, #116, #114 ) ) REPRESENTATION_CONTEXT ( 'NONE', 'WORKASPACE' ) );
#12 = EDGE_LOOP ( 'NONE', ( #40, #102, #223, #69 ) ) ;
#13 = LINE ( 'NONE', #198, #290 ) ;
#14 = ORIENTED_EDGE ( 'NONE', *, *, #280, .F. ) ;
#15 = TOROIDAL_SURFACE ( 'NONE', #47, 7.500000000000000000, 0.5000000000000000000 ) ;
#16 = EDGE_LOOP ( 'NONE', ( #199, #126 ) ) ;
#17 = PRODUCT ( 'F688 pillow', 'F688 pillow', '', ( #110 ) ) ;
#18 = CIRCLE ( 'NONE', #85, 4.000000000000000000 ) ;
#19 = ORIENTED_EDGE ( 'NONE', *, *, #168, .T. ) ;
#20 = ORIENTED_EDGE ( 'NONE', *, *, #193, .F. ) ;
#21 = EDGE_LOOP ( 'NONE', ( #301, #42 ) ) ;
#22 = MECHANICAL_DESIGN_GEOMETRIC_PRESENTATION_REPRESENTATION (  '', ( #34 ), #11 ) ;
#23 = PRESENTATION_LAYER_ASSIGNMENT (  '', '', ( #34 ) ) ;
#24 = SHAPE_DEFINITION_REPRESENTATION ( #128, #32 ) ;
#25 = EDGE_CURVE ( 'NONE', #94, #152, #182, .T. ) ;
#26 = CIRCLE ( 'NONE', #93, 0.5000000000000004400 ) ;
#27 = EDGE_LOOP ( 'NONE', ( #327, #210, #248, #39 ) ) ;
#28 = EDGE_CURVE ( 'NONE', #329, #141, #49, .T. ) ;
#29 = EDGE_LOOP ( 'NONE', ( #4, #340, #82, #10 ) ) ;
#30 = ORIENTED_EDGE ( 'NONE', *, *, #169, .F. ) ;
#31 = FACE_OUTER_BOUND ( 'NONE', #16, .T. ) ;
#32 = ADVANCED_BREP_SHAPE_REPRESENTATION ( 'F688 pillow', ( #63, #302 ), #71 ) ;
#33 = VERTEX_POINT ( 'NONE', #270 ) ;
#34 = STYLED_ITEM ( 'NONE', ( #143 ), #32 ) ;
#35 = AXIS2_PLACEMENT_3D ( 'NONE', #310, #271, #273 ) ;
#36 = ADVANCED_FACE ( 'NONE', ( #5, #286 ), #336, .T. ) ;
#37 = CYLINDRICAL_SURFACE ( 'NONE', #35, 8.000000000000000000 ) ;
#38 = AXIS2_PLACEMENT_3D ( 'NONE', #145, #154, #144 ) ;
#39 = ORIENTED_EDGE ( 'NONE', *, *, #321, .F. ) ;
#40 = ORIENTED_EDGE ( 'NONE', *, *, #206, .F. ) ;
#41 = ADVANCED_FACE ( 'NONE', ( #91 ), #62, .T. ) ;
#42 = ORIENTED_EDGE ( 'NONE', *, *, #148, .F. ) ;
#43 = FACE_OUTER_BOUND ( 'NONE', #322, .T. ) ;
#44 = AXIS2_PLACEMENT_3D ( 'NONE', #161, #166, #172 ) ;
#45 = AXIS2_PLACEMENT_3D ( 'NONE', #153, #151, #149 ) ;
#46 = ADVANCED_FACE ( 'NONE', ( #170 ), #191, .T. ) ;
#47 = AXIS2_PLACEMENT_3D ( 'NONE', #276, #303, #274 ) ;
#48 = ORIENTED_EDGE ( 'NONE', *, *, #258, .F. ) ;
#49 = CIRCLE ( 'NONE', #95, 4.000000000000000000 ) ;
#50 = UNCERTAINTY_MEASURE_WITH_UNIT (LENGTH_MEASURE( 1.000000000000000100E-005 ), #142, 'distance_accuracy_value', 'NONE');
#51 = AXIS2_PLACEMENT_3D ( 'NONE', #257, #256, #255 ) ;
#52 = PRODUCT_DEFINITION_CONTEXT ( 'detailed design', #108, 'design' ) ;
#53 = ADVANCED_FACE ( 'NONE', ( #103 ), #55, .F. ) ;
#54 = CYLINDRICAL_SURFACE ( 'NONE', #44, 8.000000000000000000 ) ;
#55 = CYLINDRICAL_SURFACE ( 'NONE', #64, 4.000000000000000000 ) ;
#56 = ORIENTED_EDGE ( 'NONE', *, *, #265, .F. ) ;
#57 =( GEOMETRIC_REPRESENTATION_CONTEXT ( 3 ) GLOBAL_UNCERTAINTY_ASSIGNED_CONTEXT ( ( #233 ) ) GLOBAL_UNIT_ASSIGNED_CONTEXT ( ( #288, #285, #281 ) ) REPRESENTATION_CONTEXT ( 'NONE', 'WORKASPACE' ) );
#58 = MECHANICAL_DESIGN_GEOMETRIC_PRESENTATION_REPRESENTATION (  '', ( #74 ), #57 ) ;
#59 = VERTEX_POINT ( 'NONE', #298 ) ;
#60 = VECTOR ( 'NONE', #197, 1000.000000000000000 ) ;
#61 = VERTEX_POINT ( 'NONE', #297 ) ;
#62 = CYLINDRICAL_SURFACE ( 'NONE', #72, 9.000000000000000000 ) ;
#63 = MANIFOLD_SOLID_BREP ( 'Ô²½Ç1', #192 ) ;
#64 = AXIS2_PLACEMENT_3D ( 'NONE', #308, #306, #316 ) ;
#65 = ORIENTED_EDGE ( 'NONE', *, *, #28, .F. ) ;
#66 = LINE ( 'NONE', #209, #305 ) ;
#67 = ORIENTED_EDGE ( 'NONE', *, *, #28, .T. ) ;
#68 = AXIS2_PLACEMENT_3D ( 'NONE', #312, #311, #337 ) ;
#69 = ORIENTED_EDGE ( 'NONE', *, *, #225, .F. ) ;
#70 = ORIENTED_EDGE ( 'NONE', *, *, #321, .T. ) ;
#71 =( GEOMETRIC_REPRESENTATION_CONTEXT ( 3 ) GLOBAL_UNCERTAINTY_ASSIGNED_CONTEXT ( ( #50 ) ) GLOBAL_UNIT_ASSIGNED_CONTEXT ( ( #142, #135, #133 ) ) REPRESENTATION_CONTEXT ( 'NONE', 'WORKASPACE' ) );
#72 = AXIS2_PLACEMENT_3D ( 'NONE', #320, #313, #315 ) ;
#73 = CIRCLE ( 'NONE', #127, 0.5000000000000004400 ) ;
#74 = STYLED_ITEM ( 'NONE', ( #283 ), #63 ) ;
#75 = VERTEX_POINT ( 'NONE', #279 ) ;
#76 = AXIS2_PLACEMENT_3D ( 'NONE', #345, #319, #318 ) ;
#77 = ORIENTED_EDGE ( 'NONE', *, *, #148, .T. ) ;
#78 = AXIS2_PLACEMENT_3D ( 'NONE', #177, #187, #183 ) ;
#79 = LINE ( 'NONE', #254, #323 ) ;
#80 = ORIENTED_EDGE ( 'NONE', *, *, #208, .F. ) ;
#81 = CIRCLE ( 'NONE', #150, 7.500000000000000000 ) ;
#82 = ORIENTED_EDGE ( 'NONE', *, *, #208, .T. ) ;
#83 = AXIS2_PLACEMENT_3D ( 'NONE', #165, #163, #162 ) ;
#84 = AXIS2_PLACEMENT_3D ( 'NONE', #160, #159, #158 ) ;
#85 = AXIS2_PLACEMENT_3D ( 'NONE', #176, #175, #173 ) ;
#86 = AXIS2_PLACEMENT_3D ( 'NONE', #181, #180, #179 ) ;
#87 = FACE_OUTER_BOUND ( 'NONE', #12, .T. ) ;
#88 = AXIS2_PLACEMENT_3D ( 'NONE', #190, #189, #188 ) ;
#89 = TOROIDAL_SURFACE ( 'NONE', #38, 7.500000000000000000, 0.5000000000000000000 ) ;
#90 = AXIS2_PLACEMENT_3D ( 'NONE', #205, #203, #202 ) ;
#91 = FACE_OUTER_BOUND ( 'NONE', #109, .T. ) ;
#92 = CIRCLE ( 'NONE', #84, 9.000000000000000000 ) ;
#93 = AXIS2_PLACEMENT_3D ( 'NONE', #214, #213, #211 ) ;
#94 = VERTEX_POINT ( 'NONE', #277 ) ;
#95 = AXIS2_PLACEMENT_3D ( 'NONE', #334, #333, #330 ) ;
#96 = CIRCLE ( 'NONE', #45, 4.000000000000000000 ) ;
#97 = SURFACE_STYLE_FILL_AREA ( #292 ) ;
#98 = ADVANCED_FACE ( 'NONE', ( #43 ), #15, .T. ) ;
#99 = ORIENTED_EDGE ( 'NONE', *, *, #259, .T. ) ;
#100 = LINE ( 'NONE', #215, #60 ) ;
#101 = AXIS2_PLACEMENT_3D ( 'NONE', #219, #218, #217 ) ;
#102 = ORIENTED_EDGE ( 'NONE', *, *, #193, .T. ) ;
#103 = FACE_OUTER_BOUND ( 'NONE', #27, .T. ) ;
#104 = VERTEX_POINT ( 'NONE', #272 ) ;
#105 = EDGE_LOOP ( 'NONE', ( #65, #14 ) ) ;
#106 = CIRCLE ( 'NONE', #90, 8.000000000000000000 ) ;
#107 = APPLICATION_PROTOCOL_DEFINITION ( 'draft international standard', 'automotive_design', 1998, #108 ) ;
#108 = APPLICATION_CONTEXT ( 'automotive_design' ) ;
#109 = EDGE_LOOP ( 'NONE', ( #293, #77, #229, #124 ) ) ;
#110 = PRODUCT_CONTEXT ( 'NONE', #123, 'mechanical' ) ;
#111 = ORIENTED_EDGE ( 'NONE', *, *, #206, .T. ) ;
#112 = DIRECTION ( 'NONE',  ( 1.000000000000000000, 0.0000000000000000000, 0.0000000000000000000 ) ) ;
#113 = DIRECTION ( 'NONE',  ( 0.0000000000000000000, 0.0000000000000000000, 1.000000000000000000 ) ) ;
#114 =( NAMED_UNIT ( * ) SI_UNIT ( $, .STERADIAN. ) SOLID_ANGLE_UNIT ( ) );
#115 = AXIS2_PLACEMENT_3D ( 'NONE', #239, #230, #228 ) ;
#116 =( NAMED_UNIT ( * ) PLANE_ANGLE_UNIT ( ) SI_UNIT ( $, .RADIAN. ) );
#117 =( LENGTH_UNIT ( ) NAMED_UNIT ( * ) SI_UNIT ( .MILLI., .METRE. ) );
#118 = SURFACE_STYLE_USAGE ( .BOTH. , #119 ) ;
#119 = SURFACE_SIDE_STYLE ('',( #269 ) ) ;
#120 = FILL_AREA_STYLE ('',( #121 ) ) ;
#121 = FILL_AREA_STYLE_COLOUR ( '', #252 ) ;
#122 = CIRCLE ( 'NONE', #101, 8.000000000000000000 ) ;
#123 = APPLICATION_CONTEXT ( 'automotive_design' ) ;
#124 = ORIENTED_EDGE ( 'NONE', *, *, #25, .F. ) ;
#125 = APPLICATION_PROTOCOL_DEFINITION ( 'draft international standard', 'automotive_design', 1998, #123 ) ;
#126 = ORIENTED_EDGE ( 'NONE', *, *, #25, .T. ) ;
#127 = AXIS2_PLACEMENT_3D ( 'NONE', #226, #224, #222 ) ;
#128 = PRODUCT_DEFINITION_SHAPE ( 'NONE', 'NONE',  #324 ) ;
#129 = ORIENTED_EDGE ( 'NONE', *, *, #287, .T. ) ;
#130 = ADVANCED_FACE ( 'NONE', ( #253 ), #37, .T. ) ;
#131 = AXIS2_PLACEMENT_3D ( 'NONE', #237, #236, #234 ) ;
#132 = FACE_BOUND ( 'NONE', #212, .T. ) ;
#133 =( NAMED_UNIT ( * ) SI_UNIT ( $, .STERADIAN. ) SOLID_ANGLE_UNIT ( ) );
#134 = AXIS2_PLACEMENT_3D ( 'NONE', #343, #339, #338 ) ;
#135 =( NAMED_UNIT ( * ) PLANE_ANGLE_UNIT ( ) SI_UNIT ( $, .RADIAN. ) );
#136 = VERTEX_POINT ( 'NONE', #267 ) ;
#137 = ADVANCED_FACE ( 'NONE', ( #332, #146 ), #264, .F. ) ;
#138 = ORIENTED_EDGE ( 'NONE', *, *, #168, .F. ) ;
#139 = AXIS2_PLACEMENT_3D ( 'NONE', #243, #242, #240 ) ;
#140 = CARTESIAN_POINT ( 'NONE',  ( 0.0000000000000000000, 0.0000000000000000000, 0.0000000000000000000 ) ) ;
#141 = VERTEX_POINT ( 'NONE', #266 ) ;
#142 =( LENGTH_UNIT ( ) NAMED_UNIT ( * ) SI_UNIT ( .MILLI., .METRE. ) );
#143 = PRESENTATION_STYLE_ASSIGNMENT (( #118 ) ) ;
#144 = DIRECTION ( 'NONE',  ( 0.0000000000000000000, 0.0000000000000000000, 1.000000000000000000 ) ) ;
#145 = CARTESIAN_POINT ( 'NONE',  ( 0.0000000000000000000, 4.500000000000000900, 0.0000000000000000000 ) ) ;
#146 = FACE_BOUND ( 'NONE', #204, .T. ) ;
#147 = UNCERTAINTY_MEASURE_WITH_UNIT (LENGTH_MEASURE( 1.000000000000000100E-005 ), #117, 'distance_accuracy_value', 'NONE');
#148 = EDGE_CURVE ( 'NONE', #1, #33, #300, .T. ) ;
#149 = DIRECTION ( 'NONE',  ( 0.0000000000000000000, 0.0000000000000000000, 1.000000000000000000 ) ) ;
#150 = AXIS2_PLACEMENT_3D ( 'NONE', #250, #247, #246 ) ;
#151 = DIRECTION ( 'NONE',  ( 0.0000000000000000000, 1.000000000000000000, 0.0000000000000000000 ) ) ;
#152 = VERTEX_POINT ( 'NONE', #261 ) ;
#153 = CARTESIAN_POINT ( 'NONE',  ( 0.0000000000000000000, 0.0000000000000000000, 0.0000000000000000000 ) ) ;
#154 = DIRECTION ( 'NONE',  ( 0.0000000000000000000, 1.000000000000000000, 0.0000000000000000000 ) ) ;
#155 = CARTESIAN_POINT ( 'NONE',  ( 9.797174393178825700E-016, 5.000000000000000000, 8.000000000000000000 ) ) ;
#156 = EDGE_CURVE ( 'NONE', #75, #3, #81, .T. ) ;
#157 = DIRECTION ( 'NONE',  ( -0.0000000000000000000, -1.000000000000000000, -0.0000000000000000000 ) ) ;
#158 = DIRECTION ( 'NONE',  ( 0.0000000000000000000, 0.0000000000000000000, -1.000000000000000000 ) ) ;
#159 = DIRECTION ( 'NONE',  ( 0.0000000000000000000, -1.000000000000000000, 0.0000000000000000000 ) ) ;
#160 = CARTESIAN_POINT ( 'NONE',  ( 0.0000000000000000000, 1.000000000000000000, 0.0000000000000000000 ) ) ;
#161 = CARTESIAN_POINT ( 'NONE',  ( 0.0000000000000000000, 5.000000000000000000, 0.0000000000000000000 ) ) ;
#162 = DIRECTION ( 'NONE',  ( 0.0000000000000000000, 0.0000000000000000000, 1.000000000000000000 ) ) ;
#163 = DIRECTION ( 'NONE',  ( 0.0000000000000000000, 1.000000000000000000, 0.0000000000000000000 ) ) ;
#164 = EDGE_CURVE ( 'NONE', #278, #249, #344, .T. ) ;
#165 = CARTESIAN_POINT ( 'NONE',  ( 0.0000000000000000000, 0.0000000000000000000, 0.0000000000000000000 ) ) ;
#166 = DIRECTION ( 'NONE',  ( -0.0000000000000000000, -1.000000000000000000, -0.0000000000000000000 ) ) ;
#167 = CARTESIAN_POINT ( 'NONE',  ( 0.0000000000000000000, 5.000000000000000000, -4.000000000000000000 ) ) ;
#168 = EDGE_CURVE ( 'NONE', #249, #278, #235, .T. ) ;
#169 = EDGE_CURVE ( 'NONE', #329, #61, #79, .T. ) ;
#170 = FACE_OUTER_BOUND ( 'NONE', #304, .T. ) ;
#171 = CYLINDRICAL_SURFACE ( 'NONE', #78, 4.000000000000000000 ) ;
#172 = DIRECTION ( 'NONE',  ( 0.0000000000000000000, 0.0000000000000000000, -1.000000000000000000 ) ) ;
#173 = DIRECTION ( 'NONE',  ( 0.0000000000000000000, 0.0000000000000000000, 1.000000000000000000 ) ) ;
#174 = ADVANCED_FACE ( 'NONE', ( #132, #31 ), #232, .F. ) ;
#175 = DIRECTION ( 'NONE',  ( 0.0000000000000000000, 1.000000000000000000, 0.0000000000000000000 ) ) ;
#176 = CARTESIAN_POINT ( 'NONE',  ( 0.0000000000000000000, 5.000000000000000000, 0.0000000000000000000 ) ) ;
#177 = CARTESIAN_POINT ( 'NONE',  ( 0.0000000000000000000, 5.000000000000000000, 0.0000000000000000000 ) ) ;
#178 = VECTOR ( 'NONE', #157, 1000.000000000000000 ) ;
#179 = DIRECTION ( 'NONE',  ( 0.0000000000000000000, 0.0000000000000000000, 1.000000000000000000 ) ) ;
#180 = DIRECTION ( 'NONE',  ( 0.0000000000000000000, 1.000000000000000000, 0.0000000000000000000 ) ) ;
#181 = CARTESIAN_POINT ( 'NONE',  ( 0.0000000000000000000, 5.000000000000000000, 0.0000000000000000000 ) ) ;
#182 = CIRCLE ( 'NONE', #134, 9.000000000000000000 ) ;
#183 = DIRECTION ( 'NONE',  ( 0.0000000000000000000, 0.0000000000000000000, -1.000000000000000000 ) ) ;
#184 = FACE_OUTER_BOUND ( 'NONE', #2, .T. ) ;
#185 = CARTESIAN_POINT ( 'NONE',  ( 9.797174393178825700E-016, 1.000000000000000000, 8.000000000000000000 ) ) ;
#186 = ORIENTED_EDGE ( 'NONE', *, *, #287, .F. ) ;
#187 = DIRECTION ( 'NONE',  ( -0.0000000000000000000, -1.000000000000000000, -0.0000000000000000000 ) ) ;
#188 = DIRECTION ( 'NONE',  ( 0.0000000000000000000, 0.0000000000000000000, -1.000000000000000000 ) ) ;
#189 = DIRECTION ( 'NONE',  ( 0.0000000000000000000, -1.000000000000000000, 0.0000000000000000000 ) ) ;
#190 = CARTESIAN_POINT ( 'NONE',  ( 0.0000000000000000000, 0.0000000000000000000, 0.0000000000000000000 ) ) ;
#191 = CYLINDRICAL_SURFACE ( 'NONE', #68, 9.000000000000000000 ) ;
#192 = CLOSED_SHELL ( 'NONE', ( #328, #46, #284, #130, #296, #36, #174, #53, #137, #41, #98 ) ) ;
#193 = EDGE_CURVE ( 'NONE', #104, #3, #73, .T. ) ;
#194 = ORIENTED_EDGE ( 'NONE', *, *, #164, .T. ) ;
#195 = DIRECTION ( 'NONE',  ( -0.0000000000000000000, -1.000000000000000000, -0.0000000000000000000 ) ) ;
#196 = CIRCLE ( 'NONE', #86, 7.500000000000000000 ) ;
#197 = DIRECTION ( 'NONE',  ( 0.0000000000000000000, -1.000000000000000000, 0.0000000000000000000 ) ) ;
#198 = CARTESIAN_POINT ( 'NONE',  ( 4.898587196589412800E-016, 5.000000000000000000, 4.000000000000000000 ) ) ;
#199 = ORIENTED_EDGE ( 'NONE', *, *, #258, .T. ) ;
#200 = CARTESIAN_POINT ( 'NONE',  ( 0.0000000000000000000, 1.000000000000000000, -8.000000000000000000 ) ) ;
#201 = ORIENTED_EDGE ( 'NONE', *, *, #294, .T. ) ;
#202 = DIRECTION ( 'NONE',  ( 0.0000000000000000000, 0.0000000000000000000, 1.000000000000000000 ) ) ;
#203 = DIRECTION ( 'NONE',  ( -0.0000000000000000000, -1.000000000000000000, -0.0000000000000000000 ) ) ;
#204 = EDGE_LOOP ( 'NONE', ( #19, #194 ) ) ;
#205 = CARTESIAN_POINT ( 'NONE',  ( 0.0000000000000000000, 4.500000000000000900, 0.0000000000000000000 ) ) ;
#206 = EDGE_CURVE ( 'NONE', #104, #136, #122, .T. ) ;
#207 = VECTOR ( 'NONE', #227, 1000.000000000000000 ) ;
#208 = EDGE_CURVE ( 'NONE', #104, #249, #220, .T. ) ;
#209 = CARTESIAN_POINT ( 'NONE',  ( 1.102182119232617700E-015, 1.000000000000000000, 9.000000000000000000 ) ) ;
#210 = ORIENTED_EDGE ( 'NONE', *, *, #280, .T. ) ;
#211 = DIRECTION ( 'NONE',  ( 0.0000000000000000000, 0.0000000000000000000, 1.000000000000000000 ) ) ;
#212 = EDGE_LOOP ( 'NONE', ( #129, #70 ) ) ;
#213 = DIRECTION ( 'NONE',  ( -1.000000000000000000, 0.0000000000000000000, 0.0000000000000000000 ) ) ;
#214 = CARTESIAN_POINT ( 'NONE',  ( 0.0000000000000000000, 4.500000000000000900, 7.500000000000000000 ) ) ;
#215 = CARTESIAN_POINT ( 'NONE',  ( 0.0000000000000000000, 1.000000000000000000, -9.000000000000000000 ) ) ;
#216 = DIRECTION ( 'NONE',  ( 0.0000000000000000000, -1.000000000000000000, 0.0000000000000000000 ) ) ;
#217 = DIRECTION ( 'NONE',  ( 0.0000000000000000000, 0.0000000000000000000, 1.000000000000000000 ) ) ;
#218 = DIRECTION ( 'NONE',  ( -0.0000000000000000000, -1.000000000000000000, -0.0000000000000000000 ) ) ;
#219 = CARTESIAN_POINT ( 'NONE',  ( 0.0000000000000000000, 4.500000000000000900, 0.0000000000000000000 ) ) ;
#220 = LINE ( 'NONE', #221, #207 ) ;
#221 = CARTESIAN_POINT ( 'NONE',  ( 0.0000000000000000000, 5.000000000000000000, -8.000000000000000000 ) ) ;
#222 = DIRECTION ( 'NONE',  ( 1.224646799147353500E-016, 0.0000000000000000000, -1.000000000000000000 ) ) ;
#223 = ORIENTED_EDGE ( 'NONE', *, *, #156, .F. ) ;
#224 = DIRECTION ( 'NONE',  ( 1.000000000000000000, -0.0000000000000000000, 1.224646799147353200E-016 ) ) ;
#225 = EDGE_CURVE ( 'NONE', #136, #75, #26, .T. ) ;
#226 = CARTESIAN_POINT ( 'NONE',  ( 9.184850993605147900E-016, 4.500000000000000900, -7.500000000000000000 ) ) ;
#227 = DIRECTION ( 'NONE',  ( -0.0000000000000000000, -1.000000000000000000, -0.0000000000000000000 ) ) ;
#228 = DIRECTION ( 'NONE',  ( 0.0000000000000000000, -0.0000000000000000000, 1.000000000000000000 ) ) ;
#229 = ORIENTED_EDGE ( 'NONE', *, *, #251, .T. ) ;
#230 = DIRECTION ( 'NONE',  ( 0.0000000000000000000, 1.000000000000000000, 0.0000000000000000000 ) ) ;
#231 = EDGE_CURVE ( 'NONE', #136, #104, #106, .T. ) ;
#232 = PLANE ( 'NONE',  #115 ) ;
#233 = UNCERTAINTY_MEASURE_WITH_UNIT (LENGTH_MEASURE( 1.000000000000000100E-005 ), #288, 'distance_accuracy_value', 'NONE');
#234 = DIRECTION ( 'NONE',  ( 0.0000000000000000000, 0.0000000000000000000, -1.000000000000000000 ) ) ;
#235 = CIRCLE ( 'NONE', #131, 8.000000000000000000 ) ;
#236 = DIRECTION ( 'NONE',  ( 0.0000000000000000000, -1.000000000000000000, 0.0000000000000000000 ) ) ;
#237 = CARTESIAN_POINT ( 'NONE',  ( 0.0000000000000000000, 1.000000000000000000, 0.0000000000000000000 ) ) ;
#238 = AXIS2_PLACEMENT_3D ( 'NONE', #268, #263, #262 ) ;
#239 = CARTESIAN_POINT ( 'NONE',  ( 0.0000000000000000000, 0.0000000000000000000, 0.0000000000000000000 ) ) ;
#240 = DIRECTION ( 'NONE',  ( 0.0000000000000000000, 0.0000000000000000000, -1.000000000000000000 ) ) ;
#241 = ORIENTED_EDGE ( 'NONE', *, *, #225, .T. ) ;
#242 = DIRECTION ( 'NONE',  ( 0.0000000000000000000, -1.000000000000000000, 0.0000000000000000000 ) ) ;
#243 = CARTESIAN_POINT ( 'NONE',  ( 0.0000000000000000000, 1.000000000000000000, 0.0000000000000000000 ) ) ;
#244 = EDGE_CURVE ( 'NONE', #1, #94, #66, .T. ) ;
#245 = DIRECTION ( 'NONE',  ( -0.0000000000000000000, -1.000000000000000000, -0.0000000000000000000 ) ) ;
#246 = DIRECTION ( 'NONE',  ( 0.0000000000000000000, 0.0000000000000000000, 1.000000000000000000 ) ) ;
#247 = DIRECTION ( 'NONE',  ( 0.0000000000000000000, 1.000000000000000000, 0.0000000000000000000 ) ) ;
#248 = ORIENTED_EDGE ( 'NONE', *, *, #169, .T. ) ;
#249 = VERTEX_POINT ( 'NONE', #200 ) ;
#250 = CARTESIAN_POINT ( 'NONE',  ( 0.0000000000000000000, 5.000000000000000000, 0.0000000000000000000 ) ) ;
#251 = EDGE_CURVE ( 'NONE', #33, #152, #100, .T. ) ;
#252 = COLOUR_RGB ( '',0.5921568627450980400, 0.6666666666666666300, 0.6823529411764706100 ) ;
#253 = FACE_OUTER_BOUND ( 'NONE', #331, .T. ) ;
#254 = CARTESIAN_POINT ( 'NONE',  ( 0.0000000000000000000, 5.000000000000000000, -4.000000000000000000 ) ) ;
#255 = DIRECTION ( 'NONE',  ( 0.0000000000000000000, 0.0000000000000000000, -1.000000000000000000 ) ) ;
#256 = DIRECTION ( 'NONE',  ( 0.0000000000000000000, -1.000000000000000000, 0.0000000000000000000 ) ) ;
#257 = CARTESIAN_POINT ( 'NONE',  ( 0.0000000000000000000, 1.000000000000000000, 0.0000000000000000000 ) ) ;
#258 = EDGE_CURVE ( 'NONE', #152, #94, #317, .T. ) ;
#259 = EDGE_CURVE ( 'NONE', #141, #59, #13, .T. ) ;
#260 = ORIENTED_EDGE ( 'NONE', *, *, #251, .F. ) ;
#261 = CARTESIAN_POINT ( 'NONE',  ( 0.0000000000000000000, 0.0000000000000000000, -9.000000000000000000 ) ) ;
#262 = DIRECTION ( 'NONE',  ( 0.0000000000000000000, -0.0000000000000000000, -1.000000000000000000 ) ) ;
#263 = DIRECTION ( 'NONE',  ( 0.0000000000000000000, -1.000000000000000000, 0.0000000000000000000 ) ) ;
#264 = PLANE ( 'NONE',  #238 ) ;
#265 = EDGE_CURVE ( 'NONE', #3, #75, #196, .T. ) ;
#266 = CARTESIAN_POINT ( 'NONE',  ( 4.898587196589412800E-016, 5.000000000000000000, 4.000000000000000000 ) ) ;
#267 = CARTESIAN_POINT ( 'NONE',  ( 9.797174393178825700E-016, 4.500000000000000900, 8.000000000000000000 ) ) ;
#268 = CARTESIAN_POINT ( 'NONE',  ( 0.0000000000000000000, 1.000000000000000000, 0.0000000000000000000 ) ) ;
#269 = SURFACE_STYLE_FILL_AREA ( #120 ) ;
#270 = CARTESIAN_POINT ( 'NONE',  ( 0.0000000000000000000, 1.000000000000000000, -9.000000000000000000 ) ) ;
#271 = DIRECTION ( 'NONE',  ( -0.0000000000000000000, -1.000000000000000000, -0.0000000000000000000 ) ) ;
#272 = CARTESIAN_POINT ( 'NONE',  ( 0.0000000000000000000, 4.500000000000000900, -8.000000000000000000 ) ) ;
#273 = DIRECTION ( 'NONE',  ( 0.0000000000000000000, 0.0000000000000000000, -1.000000000000000000 ) ) ;
#274 = DIRECTION ( 'NONE',  ( 0.0000000000000000000, 0.0000000000000000000, 1.000000000000000000 ) ) ;
#275 = CIRCLE ( 'NONE', #83, 4.000000000000000000 ) ;
#276 = CARTESIAN_POINT ( 'NONE',  ( 0.0000000000000000000, 4.500000000000000900, 0.0000000000000000000 ) ) ;
#277 = CARTESIAN_POINT ( 'NONE',  ( 1.102182119232617700E-015, 0.0000000000000000000, 9.000000000000000000 ) ) ;
#278 = VERTEX_POINT ( 'NONE', #185 ) ;
#279 = CARTESIAN_POINT ( 'NONE',  ( 0.0000000000000000000, 5.000000000000000000, 7.500000000000000000 ) ) ;
#280 = EDGE_CURVE ( 'NONE', #141, #329, #18, .T. ) ;
#281 =( NAMED_UNIT ( * ) SI_UNIT ( $, .STERADIAN. ) SOLID_ANGLE_UNIT ( ) );
#282 = LINE ( 'NONE', #155, #178 ) ;
#283 = PRESENTATION_STYLE_ASSIGNMENT (( #289 ) ) ;
#284 = ADVANCED_FACE ( 'NONE', ( #184 ), #171, .F. ) ;
#285 =( NAMED_UNIT ( * ) PLANE_ANGLE_UNIT ( ) SI_UNIT ( $, .RADIAN. ) );
#286 = FACE_BOUND ( 'NONE', #105, .T. ) ;
#287 = EDGE_CURVE ( 'NONE', #61, #59, #275, .T. ) ;
#288 =( LENGTH_UNIT ( ) NAMED_UNIT ( * ) SI_UNIT ( .MILLI., .METRE. ) );
#289 = SURFACE_STYLE_USAGE ( .BOTH. , #291 ) ;
#290 = VECTOR ( 'NONE', #195, 1000.000000000000000 ) ;
#291 = SURFACE_SIDE_STYLE ('',( #97 ) ) ;
#292 = FILL_AREA_STYLE ('',( #295 ) ) ;
#293 = ORIENTED_EDGE ( 'NONE', *, *, #244, .F. ) ;
#294 = EDGE_CURVE ( 'NONE', #33, #1, #92, .T. ) ;
#295 = FILL_AREA_STYLE_COLOUR ( '', #9 ) ;
#296 = ADVANCED_FACE ( 'NONE', ( #6 ), #54, .T. ) ;
#297 = CARTESIAN_POINT ( 'NONE',  ( 0.0000000000000000000, 0.0000000000000000000, -4.000000000000000000 ) ) ;
#298 = CARTESIAN_POINT ( 'NONE',  ( 4.898587196589412800E-016, 0.0000000000000000000, 4.000000000000000000 ) ) ;
#299 = PRODUCT_DEFINITION_FORMATION_WITH_SPECIFIED_SOURCE ( 'ÈÎºÎ', '', #17, .NOT_KNOWN. ) ;
#300 = CIRCLE ( 'NONE', #51, 9.000000000000000000 ) ;
#301 = ORIENTED_EDGE ( 'NONE', *, *, #294, .F. ) ;
#302 = AXIS2_PLACEMENT_3D ( 'NONE', #140, #113, #112 ) ;
#303 = DIRECTION ( 'NONE',  ( 0.0000000000000000000, 1.000000000000000000, 0.0000000000000000000 ) ) ;
#304 = EDGE_LOOP ( 'NONE', ( #201, #335, #48, #260 ) ) ;
#305 = VECTOR ( 'NONE', #216, 1000.000000000000000 ) ;
#306 = DIRECTION ( 'NONE',  ( -0.0000000000000000000, -1.000000000000000000, -0.0000000000000000000 ) ) ;
#307 = ORIENTED_EDGE ( 'NONE', *, *, #265, .T. ) ;
#308 = CARTESIAN_POINT ( 'NONE',  ( 0.0000000000000000000, 5.000000000000000000, 0.0000000000000000000 ) ) ;
#309 = ORIENTED_EDGE ( 'NONE', *, *, #326, .T. ) ;
#310 = CARTESIAN_POINT ( 'NONE',  ( 0.0000000000000000000, 5.000000000000000000, 0.0000000000000000000 ) ) ;
#311 = DIRECTION ( 'NONE',  ( 0.0000000000000000000, -1.000000000000000000, 0.0000000000000000000 ) ) ;
#312 = CARTESIAN_POINT ( 'NONE',  ( 0.0000000000000000000, 1.000000000000000000, 0.0000000000000000000 ) ) ;
#313 = DIRECTION ( 'NONE',  ( 0.0000000000000000000, -1.000000000000000000, 0.0000000000000000000 ) ) ;
#314 = EDGE_LOOP ( 'NONE', ( #7, #307 ) ) ;
#315 = DIRECTION ( 'NONE',  ( 0.0000000000000000000, 0.0000000000000000000, -1.000000000000000000 ) ) ;
#316 = DIRECTION ( 'NONE',  ( 0.0000000000000000000, 0.0000000000000000000, -1.000000000000000000 ) ) ;
#317 = CIRCLE ( 'NONE', #88, 9.000000000000000000 ) ;
#318 = DIRECTION ( 'NONE',  ( 0.0000000000000000000, -0.0000000000000000000, 1.000000000000000000 ) ) ;
#319 = DIRECTION ( 'NONE',  ( 0.0000000000000000000, 1.000000000000000000, 0.0000000000000000000 ) ) ;
#320 = CARTESIAN_POINT ( 'NONE',  ( 0.0000000000000000000, 1.000000000000000000, 0.0000000000000000000 ) ) ;
#321 = EDGE_CURVE ( 'NONE', #59, #61, #96, .T. ) ;
#322 = EDGE_LOOP ( 'NONE', ( #20, #8, #241, #56 ) ) ;
#323 = VECTOR ( 'NONE', #245, 1000.000000000000000 ) ;
#324 = PRODUCT_DEFINITION ( 'Î´Öª', '', #299, #52 ) ;
#325 = PRODUCT_RELATED_PRODUCT_CATEGORY ( 'part', '', ( #17 ) ) ;
#326 = EDGE_CURVE ( 'NONE', #136, #278, #282, .T. ) ;
#327 = ORIENTED_EDGE ( 'NONE', *, *, #259, .F. ) ;
#328 = ADVANCED_FACE ( 'NONE', ( #87 ), #89, .T. ) ;
#329 = VERTEX_POINT ( 'NONE', #167 ) ;
#330 = DIRECTION ( 'NONE',  ( 0.0000000000000000000, 0.0000000000000000000, 1.000000000000000000 ) ) ;
#331 = EDGE_LOOP ( 'NONE', ( #111, #309, #138, #80 ) ) ;
#332 = FACE_OUTER_BOUND ( 'NONE', #21, .T. ) ;
#333 = DIRECTION ( 'NONE',  ( 0.0000000000000000000, 1.000000000000000000, 0.0000000000000000000 ) ) ;
#334 = CARTESIAN_POINT ( 'NONE',  ( 0.0000000000000000000, 5.000000000000000000, 0.0000000000000000000 ) ) ;
#335 = ORIENTED_EDGE ( 'NONE', *, *, #244, .T. ) ;
#336 = PLANE ( 'NONE',  #76 ) ;
#337 = DIRECTION ( 'NONE',  ( 0.0000000000000000000, 0.0000000000000000000, -1.000000000000000000 ) ) ;
#338 = DIRECTION ( 'NONE',  ( 0.0000000000000000000, 0.0000000000000000000, -1.000000000000000000 ) ) ;
#339 = DIRECTION ( 'NONE',  ( 0.0000000000000000000, -1.000000000000000000, 0.0000000000000000000 ) ) ;
#340 = ORIENTED_EDGE ( 'NONE', *, *, #231, .T. ) ;
#341 = CARTESIAN_POINT ( 'NONE',  ( 9.491012693391985800E-016, 5.000000000000000000, -7.500000000000000000 ) ) ;
#342 = CARTESIAN_POINT ( 'NONE',  ( 1.102182119232617700E-015, 1.000000000000000000, 9.000000000000000000 ) ) ;
#343 = CARTESIAN_POINT ( 'NONE',  ( 0.0000000000000000000, 0.0000000000000000000, 0.0000000000000000000 ) ) ;
#344 = CIRCLE ( 'NONE', #139, 8.000000000000000000 ) ;
#345 = CARTESIAN_POINT ( 'NONE',  ( 0.0000000000000000000, 5.000000000000000000, 0.0000000000000000000 ) ) ;
#346 = PRESENTATION_LAYER_ASSIGNMENT (  '', '', ( #74 ) ) ;
ENDSEC;
END-ISO-10303-21;
