ISO-10303-21;
HEADER;
FILE_DESCRIPTION (( 'STEP AP203' ),
    '1' );
FILE_NAME ('Shield.STEP',
    '2020-01-18T18:38:37',
    ( '' ),
    ( '' ),
    'SwSTEP 2.0',
    'SolidWorks 2018',
    '' );
FILE_SCHEMA (( 'CONFIG_CONTROL_DESIGN' ));
ENDSEC;

DATA;
#1 = DIRECTION ( 'NONE',  ( 0.0000000000000000000, 0.0000000000000000000, 1.000000000000000000 ) ) ;
#2 = DATE_TIME_ROLE ( 'classification_date' ) ;
#3 = APPROVAL_ROLE ( '' ) ;
#4 = CIRCLE ( 'NONE', #207, 23.89999999999997371 ) ;
#5 = AXIS2_PLACEMENT_3D ( 'NONE', #153, #45, #42 ) ;
#6 = APPROVAL_DATE_TIME ( #132, #157 ) ;
#7 = DIRECTION ( 'NONE',  ( -0.0000000000000000000, 1.000000000000000000, -0.0000000000000000000 ) ) ;
#8 = AXIS2_PLACEMENT_3D ( 'NONE', #235, #109, #95 ) ;
#9 = DIRECTION ( 'NONE',  ( -0.0000000000000000000, 1.000000000000000000, -0.0000000000000000000 ) ) ;
#10 =( GEOMETRIC_REPRESENTATION_CONTEXT ( 3 ) GLOBAL_UNCERTAINTY_ASSIGNED_CONTEXT ( ( #188 ) ) GLOBAL_UNIT_ASSIGNED_CONTEXT ( ( #26, #239, #180 ) ) REPRESENTATION_CONTEXT ( 'NONE', 'WORKASPACE' ) );
#11 = DIRECTION ( 'NONE',  ( 0.0000000000000000000, 0.0000000000000000000, 1.000000000000000000 ) ) ;
#12 = ORIENTED_EDGE ( 'NONE', *, *, #90, .F. ) ;
#13 = VECTOR ( 'NONE', #167, 1000.000000000000000 ) ;
#14 = ORIENTED_EDGE ( 'NONE', *, *, #177, .F. ) ;
#15 = DATE_AND_TIME ( #178, #200 ) ;
#16 = EDGE_CURVE ( 'NONE', #77, #125, #226, .T. ) ;
#17 = PERSON_AND_ORGANIZATION_ROLE ( 'design_owner' ) ;
#18 = CYLINDRICAL_SURFACE ( 'NONE', #240, 23.89999999999997371 ) ;
#19 = ORIENTED_EDGE ( 'NONE', *, *, #202, .T. ) ;
#20 = APPROVAL_STATUS ( 'not_yet_approved' ) ;
#21 = CARTESIAN_POINT ( 'NONE',  ( 0.0000000000000000000, 30.21991199853063748, 25.99999999999996803 ) ) ;
#22 = VERTEX_POINT ( 'NONE', #56 ) ;
#23 = DIRECTION ( 'NONE',  ( 0.0000000000000000000, -0.0000000000000000000, -1.000000000000000000 ) ) ;
#24 = DIRECTION ( 'NONE',  ( 0.0000000000000000000, 0.0000000000000000000, 1.000000000000000000 ) ) ;
#25 = PERSON_AND_ORGANIZATION ( #91, #31 ) ;
#26 =( LENGTH_UNIT ( ) NAMED_UNIT ( * ) SI_UNIT ( .MILLI., .METRE. ) );
#27 = FACE_BOUND ( 'NONE', #47, .T. ) ;
#28 = AXIS2_PLACEMENT_3D ( 'NONE', #86, #216, #11 ) ;
#29 = EDGE_CURVE ( 'NONE', #77, #88, #158, .T. ) ;
#30 = FACE_OUTER_BOUND ( 'NONE', #51, .T. ) ;
#31 = ORGANIZATION ( 'UNSPECIFIED', 'UNSPECIFIED', '' ) ;
#32 = CC_DESIGN_SECURITY_CLASSIFICATION ( #112, ( #121 ) ) ;
#33 = ORIENTED_EDGE ( 'NONE', *, *, #16, .F. ) ;
#34 = ADVANCED_FACE ( 'NONE', ( #44 ), #103, .T. ) ;
#35 = VERTEX_POINT ( 'NONE', #208 ) ;
#36 = DIRECTION ( 'NONE',  ( 0.0000000000000000000, -1.000000000000000000, 0.0000000000000000000 ) ) ;
#37 = COORDINATED_UNIVERSAL_TIME_OFFSET ( 6, 0, .BEHIND. ) ;
#38 = CARTESIAN_POINT ( 'NONE',  ( 0.0000000000000000000, -83.78008800146936608, 25.99999999999995737 ) ) ;
#39 = CARTESIAN_POINT ( 'NONE',  ( 0.0000000000000000000, -83.78008800146936608, 0.0000000000000000000 ) ) ;
#40 = ORIENTED_EDGE ( 'NONE', *, *, #130, .F. ) ;
#41 = AXIS2_PLACEMENT_3D ( 'NONE', #43, #64, #62 ) ;
#42 = DIRECTION ( 'NONE',  ( 0.0000000000000000000, 0.0000000000000000000, 1.000000000000000000 ) ) ;
#43 = CARTESIAN_POINT ( 'NONE',  ( 0.0000000000000000000, 30.21991199853063748, 0.0000000000000000000 ) ) ;
#44 = FACE_OUTER_BOUND ( 'NONE', #87, .T. ) ;
#45 = DIRECTION ( 'NONE',  ( -0.0000000000000000000, 1.000000000000000000, -0.0000000000000000000 ) ) ;
#46 = CC_DESIGN_APPROVAL ( #157, ( #146 ) ) ;
#47 = EDGE_LOOP ( 'NONE', ( #67, #148 ) ) ;
#48 = DESIGN_CONTEXT ( 'detailed design', #55, 'design' ) ;
#49 = CYLINDRICAL_SURFACE ( 'NONE', #50, 25.99999999999996803 ) ;
#50 = AXIS2_PLACEMENT_3D ( 'NONE', #82, #175, #98 ) ;
#51 = EDGE_LOOP ( 'NONE', ( #209, #147, #94, #201 ) ) ;
#52 = ADVANCED_FACE ( 'NONE', ( #58, #99 ), #231, .T. ) ;
#53 = APPROVAL_ROLE ( '' ) ;
#54 = EDGE_LOOP ( 'NONE', ( #243, #145 ) ) ;
#55 = APPLICATION_CONTEXT ( 'configuration controlled 3d designs of mechanical parts and assemblies' ) ;
#56 = CARTESIAN_POINT ( 'NONE',  ( 0.0000000000000000000, 30.21991199853063748, 23.89999999999997371 ) ) ;
#57 = EDGE_CURVE ( 'NONE', #35, #223, #4, .T. ) ;
#58 = FACE_BOUND ( 'NONE', #54, .T. ) ;
#59 = DIRECTION ( 'NONE',  ( -0.0000000000000000000, 1.000000000000000000, -0.0000000000000000000 ) ) ;
#60 = CARTESIAN_POINT ( 'NONE',  ( 0.0000000000000000000, 30.21991199853063748, 0.0000000000000000000 ) ) ;
#61 = DIRECTION ( 'NONE',  ( 0.0000000000000000000, 0.0000000000000000000, 1.000000000000000000 ) ) ;
#62 = DIRECTION ( 'NONE',  ( 0.0000000000000000000, 0.0000000000000000000, 1.000000000000000000 ) ) ;
#63 = AXIS2_PLACEMENT_3D ( 'NONE', #60, #173, #195 ) ;
#64 = DIRECTION ( 'NONE',  ( -0.0000000000000000000, 1.000000000000000000, -0.0000000000000000000 ) ) ;
#65 = CC_DESIGN_PERSON_AND_ORGANIZATION_ASSIGNMENT ( #245, #163, ( #121 ) ) ;
#66 = EDGE_LOOP ( 'NONE', ( #204, #143 ) ) ;
#67 = ORIENTED_EDGE ( 'NONE', *, *, #196, .F. ) ;
#68 = FACE_OUTER_BOUND ( 'NONE', #92, .T. ) ;
#69 = PRODUCT ( 'Shield', 'Shield', '', ( #230 ) ) ;
#70 = CC_DESIGN_PERSON_AND_ORGANIZATION_ASSIGNMENT ( #179, #184, ( #146 ) ) ;
#71 = LINE ( 'NONE', #170, #221 ) ;
#72 = PERSON_AND_ORGANIZATION_ROLE ( 'classification_officer' ) ;
#73 = LOCAL_TIME ( 12, 38, 37.00000000000000000, #138 ) ;
#74 = DIRECTION ( 'NONE',  ( 0.0000000000000000000, 0.0000000000000000000, 1.000000000000000000 ) ) ;
#75 = FACE_OUTER_BOUND ( 'NONE', #66, .T. ) ;
#76 = EDGE_CURVE ( 'NONE', #142, #22, #219, .T. ) ;
#77 = VERTEX_POINT ( 'NONE', #38 ) ;
#78 = CC_DESIGN_PERSON_AND_ORGANIZATION_ASSIGNMENT ( #129, #189, ( #121 ) ) ;
#79 = CARTESIAN_POINT ( 'NONE',  ( 0.0000000000000000000, 30.21991199853063748, 25.99999999999997513 ) ) ;
#80 = COORDINATED_UNIVERSAL_TIME_OFFSET ( 6, 0, .BEHIND. ) ;
#81 = CARTESIAN_POINT ( 'NONE',  ( 0.0000000000000000000, 30.21991199853063748, 23.89999999999997371 ) ) ;
#82 = CARTESIAN_POINT ( 'NONE',  ( 0.0000000000000000000, 30.21991199853063748, 0.0000000000000000000 ) ) ;
#83 = SHAPE_DEFINITION_REPRESENTATION ( #186, #97 ) ;
#84 = CARTESIAN_POINT ( 'NONE',  ( 2.926905849962170988E-15, 30.21991199853063748, -23.89999999999997371 ) ) ;
#85 = CC_DESIGN_PERSON_AND_ORGANIZATION_ASSIGNMENT ( #229, #72, ( #112 ) ) ;
#86 = CARTESIAN_POINT ( 'NONE',  ( 0.0000000000000000000, 30.21991199853063748, 0.0000000000000000000 ) ) ;
#87 = EDGE_LOOP ( 'NONE', ( #155, #101, #116, #185 ) ) ;
#88 = VERTEX_POINT ( 'NONE', #79 ) ;
#89 = CIRCLE ( 'NONE', #63, 25.99999999999997513 ) ;
#90 = EDGE_CURVE ( 'NONE', #223, #22, #171, .T. ) ;
#91 = PERSON ( 'UNSPECIFIED', 'UNSPECIFIED', 'UNSPECIFIED', ('UNSPECIFIED'), ('UNSPECIFIED'), ('UNSPECIFIED') ) ;
#92 = EDGE_LOOP ( 'NONE', ( #40, #214, #206, #139 ) ) ;
#93 = AXIS2_PLACEMENT_3D ( 'NONE', #241, #74, #108 ) ;
#94 = ORIENTED_EDGE ( 'NONE', *, *, #90, .T. ) ;
#95 = DIRECTION ( 'NONE',  ( 0.0000000000000000000, 0.0000000000000000000, 1.000000000000000000 ) ) ;
#96 = DIRECTION ( 'NONE',  ( -0.0000000000000000000, 1.000000000000000000, -0.0000000000000000000 ) ) ;
#97 = ADVANCED_BREP_SHAPE_REPRESENTATION ( 'Shield', ( #149, #93 ), #10 ) ;
#98 = DIRECTION ( 'NONE',  ( 0.0000000000000000000, 0.0000000000000000000, 1.000000000000000000 ) ) ;
#99 = FACE_OUTER_BOUND ( 'NONE', #232, .T. ) ;
#100 = CALENDAR_DATE ( 2020, 18, 1 ) ;
#101 = ORIENTED_EDGE ( 'NONE', *, *, #130, .T. ) ;
#102 = ADVANCED_FACE ( 'NONE', ( #30 ), #18, .F. ) ;
#103 = CYLINDRICAL_SURFACE ( 'NONE', #8, 25.99999999999996803 ) ;
#104 = CC_DESIGN_DATE_AND_TIME_ASSIGNMENT ( #15, #144, ( #146 ) ) ;
#105 = APPLICATION_PROTOCOL_DEFINITION ( 'international standard', 'config_control_design', 1994, #165 ) ;
#106 = DATE_AND_TIME ( #220, #205 ) ;
#107 = EDGE_LOOP ( 'NONE', ( #162, #19, #197, #12 ) ) ;
#108 = DIRECTION ( 'NONE',  ( 1.000000000000000000, 0.0000000000000000000, 0.0000000000000000000 ) ) ;
#109 = DIRECTION ( 'NONE',  ( -0.0000000000000000000, 1.000000000000000000, -0.0000000000000000000 ) ) ;
#110 = AXIS2_PLACEMENT_3D ( 'NONE', #217, #9, #238 ) ;
#111 = LOCAL_TIME ( 12, 38, 37.00000000000000000, #80 ) ;
#112 = SECURITY_CLASSIFICATION ( '', '', #160 ) ;
#113 = APPROVAL_STATUS ( 'not_yet_approved' ) ;
#114 = PLANE ( 'NONE',  #244 ) ;
#115 = CIRCLE ( 'NONE', #233, 25.99999999999995737 ) ;
#116 = ORIENTED_EDGE ( 'NONE', *, *, #218, .F. ) ;
#117 = CARTESIAN_POINT ( 'NONE',  ( 3.184081677783113852E-15, -83.78008800146936608, -25.99999999999995737 ) ) ;
#118 = CARTESIAN_POINT ( 'NONE',  ( -25.99999999999997513, 30.21991199853063748, 0.0000000000000000000 ) ) ;
#119 = APPROVAL_DATE_TIME ( #166, #156 ) ;
#120 = DIRECTION ( 'NONE',  ( -0.0000000000000000000, 1.000000000000000000, -0.0000000000000000000 ) ) ;
#121 = PRODUCT_DEFINITION_FORMATION_WITH_SPECIFIED_SOURCE ( 'ANY', '', #69, .NOT_KNOWN. ) ;
#122 = COORDINATED_UNIVERSAL_TIME_OFFSET ( 6, 0, .BEHIND. ) ;
#123 = VECTOR ( 'NONE', #120, 1000.000000000000000 ) ;
#124 = CC_DESIGN_PERSON_AND_ORGANIZATION_ASSIGNMENT ( #25, #17, ( #69 ) ) ;
#125 = VERTEX_POINT ( 'NONE', #117 ) ;
#126 = CIRCLE ( 'NONE', #110, 25.99999999999997513 ) ;
#127 = APPROVAL_ROLE ( '' ) ;
#128 = ADVANCED_FACE ( 'NONE', ( #161 ), #227, .F. ) ;
#129 = PERSON_AND_ORGANIZATION ( #91, #31 ) ;
#130 = EDGE_CURVE ( 'NONE', #125, #192, #71, .T. ) ;
#131 = CARTESIAN_POINT ( 'NONE',  ( -25.99999999999995737, -83.78008800146936608, 0.0000000000000000000 ) ) ;
#132 = DATE_AND_TIME ( #248, #111 ) ;
#133 = DIRECTION ( 'NONE',  ( -0.0000000000000000000, 1.000000000000000000, -0.0000000000000000000 ) ) ;
#134 = DIRECTION ( 'NONE',  ( 0.0000000000000000000, 0.0000000000000000000, 1.000000000000000000 ) ) ;
#135 = CARTESIAN_POINT ( 'NONE',  ( 0.0000000000000000000, 30.21991199853063748, 0.0000000000000000000 ) ) ;
#136 = CIRCLE ( 'NONE', #5, 23.89999999999997371 ) ;
#137 = DIRECTION ( 'NONE',  ( 0.0000000000000000000, 0.0000000000000000000, 1.000000000000000000 ) ) ;
#138 = COORDINATED_UNIVERSAL_TIME_OFFSET ( 6, 0, .BEHIND. ) ;
#139 = ORIENTED_EDGE ( 'NONE', *, *, #168, .F. ) ;
#140 = LINE ( 'NONE', #84, #211 ) ;
#141 = APPROVAL_PERSON_ORGANIZATION ( #210, #154, #127 ) ;
#142 = VERTEX_POINT ( 'NONE', #236 ) ;
#143 = ORIENTED_EDGE ( 'NONE', *, *, #168, .T. ) ;
#144 = DATE_TIME_ROLE ( 'creation_date' ) ;
#145 = ORIENTED_EDGE ( 'NONE', *, *, #57, .T. ) ;
#146 = PRODUCT_DEFINITION ( 'UNKNOWN', '', #121, #48 ) ;
#147 = ORIENTED_EDGE ( 'NONE', *, *, #164, .F. ) ;
#148 = ORIENTED_EDGE ( 'NONE', *, *, #76, .F. ) ;
#149 = MANIFOLD_SOLID_BREP ( 'Revolución1', #242 ) ;
#150 = COORDINATED_UNIVERSAL_TIME_OFFSET ( 6, 0, .BEHIND. ) ;
#151 = CC_DESIGN_DATE_AND_TIME_ASSIGNMENT ( #187, #2, ( #112 ) ) ;
#152 = DIRECTION ( 'NONE',  ( -0.0000000000000000000, 1.000000000000000000, -0.0000000000000000000 ) ) ;
#153 = CARTESIAN_POINT ( 'NONE',  ( 0.0000000000000000000, -83.78008800146936608, 0.0000000000000000000 ) ) ;
#154 = APPROVAL ( #247, 'UNSPECIFIED' ) ;
#155 = ORIENTED_EDGE ( 'NONE', *, *, #16, .T. ) ;
#156 = APPROVAL ( #113, 'UNSPECIFIED' ) ;
#157 = APPROVAL ( #20, 'UNSPECIFIED' ) ;
#158 = LINE ( 'NONE', #21, #13 ) ;
#159 = APPROVAL_DATE_TIME ( #106, #154 ) ;
#160 = SECURITY_CLASSIFICATION_LEVEL ( 'unclassified' ) ;
#161 = FACE_OUTER_BOUND ( 'NONE', #107, .T. ) ;
#162 = ORIENTED_EDGE ( 'NONE', *, *, #57, .F. ) ;
#163 = PERSON_AND_ORGANIZATION_ROLE ( 'creator' ) ;
#164 = EDGE_CURVE ( 'NONE', #223, #35, #136, .T. ) ;
#165 = APPLICATION_CONTEXT ( 'configuration controlled 3d designs of mechanical parts and assemblies' ) ;
#166 = DATE_AND_TIME ( #224, #73 ) ;
#167 = DIRECTION ( 'NONE',  ( -0.0000000000000000000, 1.000000000000000000, -0.0000000000000000000 ) ) ;
#168 = EDGE_CURVE ( 'NONE', #192, #88, #89, .T. ) ;
#169 = CARTESIAN_POINT ( 'NONE',  ( 0.0000000000000000000, -83.78008800146936608, 0.0000000000000000000 ) ) ;
#170 = CARTESIAN_POINT ( 'NONE',  ( 3.184081677783114246E-15, 30.21991199853063748, -25.99999999999996803 ) ) ;
#171 = LINE ( 'NONE', #81, #123 ) ;
#172 = CARTESIAN_POINT ( 'NONE',  ( 3.184081677783115035E-15, 30.21991199853063748, -25.99999999999997513 ) ) ;
#173 = DIRECTION ( 'NONE',  ( -0.0000000000000000000, 1.000000000000000000, -0.0000000000000000000 ) ) ;
#174 = PERSON_AND_ORGANIZATION ( #91, #31 ) ;
#175 = DIRECTION ( 'NONE',  ( -0.0000000000000000000, 1.000000000000000000, -0.0000000000000000000 ) ) ;
#176 = DIRECTION ( 'NONE',  ( -0.0000000000000000000, 1.000000000000000000, -0.0000000000000000000 ) ) ;
#177 = EDGE_CURVE ( 'NONE', #125, #77, #115, .T. ) ;
#178 = CALENDAR_DATE ( 2020, 18, 1 ) ;
#179 = PERSON_AND_ORGANIZATION ( #91, #31 ) ;
#180 =( NAMED_UNIT ( * ) SI_UNIT ( $, .STERADIAN. ) SOLID_ANGLE_UNIT ( ) );
#181 = APPROVAL_PERSON_ORGANIZATION ( #234, #157, #53 ) ;
#182 = ADVANCED_FACE ( 'NONE', ( #75, #27 ), #114, .T. ) ;
#183 = CC_DESIGN_APPROVAL ( #154, ( #121 ) ) ;
#184 = PERSON_AND_ORGANIZATION_ROLE ( 'creator' ) ;
#185 = ORIENTED_EDGE ( 'NONE', *, *, #29, .F. ) ;
#186 = PRODUCT_DEFINITION_SHAPE ( 'NONE', 'NONE',  #146 ) ;
#187 = DATE_AND_TIME ( #100, #194 ) ;
#188 = UNCERTAINTY_MEASURE_WITH_UNIT (LENGTH_MEASURE( 1.000000000000000082E-05 ), #26, 'distance_accuracy_value', 'NONE');
#189 = PERSON_AND_ORGANIZATION_ROLE ( 'design_supplier' ) ;
#190 = AXIS2_PLACEMENT_3D ( 'NONE', #169, #59, #1 ) ;
#191 = APPROVAL_PERSON_ORGANIZATION ( #174, #156, #3 ) ;
#192 = VERTEX_POINT ( 'NONE', #172 ) ;
#193 = DIRECTION ( 'NONE',  ( -0.0000000000000000000, 1.000000000000000000, 0.0000000000000000000 ) ) ;
#194 = LOCAL_TIME ( 12, 38, 37.00000000000000000, #150 ) ;
#195 = DIRECTION ( 'NONE',  ( 0.0000000000000000000, 0.0000000000000000000, 1.000000000000000000 ) ) ;
#196 = EDGE_CURVE ( 'NONE', #22, #142, #246, .T. ) ;
#197 = ORIENTED_EDGE ( 'NONE', *, *, #76, .T. ) ;
#198 = DIRECTION ( 'NONE',  ( 0.0000000000000000000, 0.0000000000000000000, 1.000000000000000000 ) ) ;
#199 = DIRECTION ( 'NONE',  ( -0.0000000000000000000, 1.000000000000000000, -0.0000000000000000000 ) ) ;
#200 = LOCAL_TIME ( 12, 38, 37.00000000000000000, #37 ) ;
#201 = ORIENTED_EDGE ( 'NONE', *, *, #196, .T. ) ;
#202 = EDGE_CURVE ( 'NONE', #35, #142, #140, .T. ) ;
#203 = ADVANCED_FACE ( 'NONE', ( #68 ), #49, .T. ) ;
#204 = ORIENTED_EDGE ( 'NONE', *, *, #218, .T. ) ;
#205 = LOCAL_TIME ( 12, 38, 37.00000000000000000, #122 ) ;
#206 = ORIENTED_EDGE ( 'NONE', *, *, #29, .T. ) ;
#207 = AXIS2_PLACEMENT_3D ( 'NONE', #39, #133, #24 ) ;
#208 = CARTESIAN_POINT ( 'NONE',  ( 2.926905849962170988E-15, -83.78008800146936608, -23.89999999999997371 ) ) ;
#209 = ORIENTED_EDGE ( 'NONE', *, *, #202, .F. ) ;
#210 = PERSON_AND_ORGANIZATION ( #91, #31 ) ;
#211 = VECTOR ( 'NONE', #7, 1000.000000000000000 ) ;
#212 = CARTESIAN_POINT ( 'NONE',  ( 0.0000000000000000000, -83.78008800146936608, 0.0000000000000000000 ) ) ;
#213 = CARTESIAN_POINT ( 'NONE',  ( 0.0000000000000000000, 30.21991199853063748, 0.0000000000000000000 ) ) ;
#214 = ORIENTED_EDGE ( 'NONE', *, *, #177, .T. ) ;
#215 = CARTESIAN_POINT ( 'NONE',  ( 0.0000000000000000000, -83.78008800146936608, 23.89999999999997371 ) ) ;
#216 = DIRECTION ( 'NONE',  ( -0.0000000000000000000, 1.000000000000000000, -0.0000000000000000000 ) ) ;
#217 = CARTESIAN_POINT ( 'NONE',  ( 0.0000000000000000000, 30.21991199853063748, 0.0000000000000000000 ) ) ;
#218 = EDGE_CURVE ( 'NONE', #88, #192, #126, .T. ) ;
#219 = CIRCLE ( 'NONE', #249, 23.89999999999997371 ) ;
#220 = CALENDAR_DATE ( 2020, 18, 1 ) ;
#221 = VECTOR ( 'NONE', #152, 1000.000000000000000 ) ;
#222 = PRODUCT_RELATED_PRODUCT_CATEGORY ( 'detail', '', ( #69 ) ) ;
#223 = VERTEX_POINT ( 'NONE', #215 ) ;
#224 = CALENDAR_DATE ( 2020, 18, 1 ) ;
#225 = AXIS2_PLACEMENT_3D ( 'NONE', #131, #36, #23 ) ;
#226 = CIRCLE ( 'NONE', #190, 25.99999999999995737 ) ;
#227 = CYLINDRICAL_SURFACE ( 'NONE', #41, 23.89999999999997371 ) ;
#228 = APPLICATION_PROTOCOL_DEFINITION ( 'international standard', 'config_control_design', 1994, #55 ) ;
#229 = PERSON_AND_ORGANIZATION ( #91, #31 ) ;
#230 = MECHANICAL_CONTEXT ( 'NONE', #165, 'mechanical' ) ;
#231 = PLANE ( 'NONE',  #225 ) ;
#232 = EDGE_LOOP ( 'NONE', ( #33, #14 ) ) ;
#233 = AXIS2_PLACEMENT_3D ( 'NONE', #212, #199, #137 ) ;
#234 = PERSON_AND_ORGANIZATION ( #91, #31 ) ;
#235 = CARTESIAN_POINT ( 'NONE',  ( 0.0000000000000000000, 30.21991199853063748, 0.0000000000000000000 ) ) ;
#236 = CARTESIAN_POINT ( 'NONE',  ( 2.926905849962170988E-15, 30.21991199853063748, -23.89999999999997371 ) ) ;
#237 = CC_DESIGN_APPROVAL ( #156, ( #112 ) ) ;
#238 = DIRECTION ( 'NONE',  ( 0.0000000000000000000, 0.0000000000000000000, 1.000000000000000000 ) ) ;
#239 =( NAMED_UNIT ( * ) PLANE_ANGLE_UNIT ( ) SI_UNIT ( $, .RADIAN. ) );
#240 = AXIS2_PLACEMENT_3D ( 'NONE', #135, #96, #134 ) ;
#241 = CARTESIAN_POINT ( 'NONE',  ( 0.0000000000000000000, 0.0000000000000000000, 0.0000000000000000000 ) ) ;
#242 = CLOSED_SHELL ( 'NONE', ( #34, #128, #182, #102, #52, #203 ) ) ;
#243 = ORIENTED_EDGE ( 'NONE', *, *, #164, .T. ) ;
#244 = AXIS2_PLACEMENT_3D ( 'NONE', #118, #193, #198 ) ;
#245 = PERSON_AND_ORGANIZATION ( #91, #31 ) ;
#246 = CIRCLE ( 'NONE', #28, 23.89999999999997371 ) ;
#247 = APPROVAL_STATUS ( 'not_yet_approved' ) ;
#248 = CALENDAR_DATE ( 2020, 18, 1 ) ;
#249 = AXIS2_PLACEMENT_3D ( 'NONE', #213, #176, #61 ) ;
ENDSEC;
END-ISO-10303-21;
