ISO-10303-21;
HEADER;
FILE_DESCRIPTION (( 'STEP AP203' ),
    '1' );
FILE_NAME ('Nylon Spacer 0.25in.step',
    '2015-07-29T19:35:00',
    ( '' ),
    ( '' ),
    'SwSTEP 2.0',
    'SolidWorks 2014',
    '' );
FILE_SCHEMA (( 'CONFIG_CONTROL_DESIGN' ));
ENDSEC;

DATA;
#1 = DIRECTION ( 'NONE',  ( -0.0000000000000000000, -1.000000000000000000, -0.0000000000000000000 ) ) ;
#2 = DIRECTION ( 'NONE',  ( 0.0000000000000000000, 0.0000000000000000000, 1.000000000000000000 ) ) ;
#3 = DIRECTION ( 'NONE',  ( 0.0000000000000000000, 1.000000000000000000, 0.0000000000000000000 ) ) ;
#4 = CC_DESIGN_SECURITY_CLASSIFICATION ( #204, ( #125 ) ) ;
#5 = LOCAL_TIME ( 15, 35, 0.0000000000000000000, #76 ) ;
#6 = ORIENTED_EDGE ( 'NONE', *, *, #208, .F. ) ;
#7 = CYLINDRICAL_SURFACE ( 'NONE', #216, 2.600000000000000100 ) ;
#8 = CIRCLE ( 'NONE', #183, 2.600000000000000100 ) ;
#9 = CARTESIAN_POINT ( 'NONE',  ( 0.0000000000000000000, 6.349999999999999600, 0.0000000000000000000 ) ) ;
#10 = CALENDAR_DATE ( 2015, 29, 7 ) ;
#11 = DIRECTION ( 'NONE',  ( 0.0000000000000000000, -0.0000000000000000000, 1.000000000000000000 ) ) ;
#12 = APPROVAL_DATE_TIME ( #57, #238 ) ;
#13 = PRODUCT_RELATED_PRODUCT_CATEGORY ( 'detail', '', ( #121 ) ) ;
#14 = CIRCLE ( 'NONE', #172, 3.968750000000000000 ) ;
#15 = DIRECTION ( 'NONE',  ( 0.0000000000000000000, 1.000000000000000000, 0.0000000000000000000 ) ) ;
#16 = PLANE ( 'NONE',  #144 ) ;
#17 = PERSON_AND_ORGANIZATION ( #35, #128 ) ;
#18 = COORDINATED_UNIVERSAL_TIME_OFFSET ( 5, 0, .BEHIND. ) ;
#19 = DIRECTION ( 'NONE',  ( 0.0000000000000000000, 1.000000000000000000, 0.0000000000000000000 ) ) ;
#20 = VECTOR ( 'NONE', #202, 1000.000000000000000 ) ;
#21 = EDGE_CURVE ( 'NONE', #59, #135, #150, .T. ) ;
#22 = AXIS2_PLACEMENT_3D ( 'NONE', #9, #152, #25 ) ;
#23 = FACE_OUTER_BOUND ( 'NONE', #113, .T. ) ;
#24 = VECTOR ( 'NONE', #190, 1000.000000000000000 ) ;
#25 = DIRECTION ( 'NONE',  ( 0.0000000000000000000, 0.0000000000000000000, 1.000000000000000000 ) ) ;
#26 = AXIS2_PLACEMENT_3D ( 'NONE', #199, #207, #205 ) ;
#27 = AXIS2_PLACEMENT_3D ( 'NONE', #198, #191, #189 ) ;
#28 = DIRECTION ( 'NONE',  ( 0.0000000000000000000, 1.000000000000000000, 0.0000000000000000000 ) ) ;
#29 = PERSON_AND_ORGANIZATION ( #35, #128 ) ;
#30 = DIRECTION ( 'NONE',  ( 0.0000000000000000000, 0.0000000000000000000, -1.000000000000000000 ) ) ;
#31 = EDGE_CURVE ( 'NONE', #95, #127, #166, .T. ) ;
#32 = EDGE_CURVE ( 'NONE', #167, #111, #75, .T. ) ;
#33 = DIRECTION ( 'NONE',  ( 0.0000000000000000000, 0.0000000000000000000, 1.000000000000000000 ) ) ;
#34 = DIRECTION ( 'NONE',  ( 0.0000000000000000000, 0.0000000000000000000, -1.000000000000000000 ) ) ;
#35 = PERSON ( 'UNSPECIFIED', 'UNSPECIFIED', 'UNSPECIFIED', ('UNSPECIFIED'), ('UNSPECIFIED'), ('UNSPECIFIED') ) ;
#36 = FACE_OUTER_BOUND ( 'NONE', #147, .T. ) ;
#37 = CARTESIAN_POINT ( 'NONE',  ( 0.0000000000000000000, 0.0000000000000000000, 0.0000000000000000000 ) ) ;
#38 = ADVANCED_FACE ( 'NONE', ( #154 ), #170, .T. ) ;
#39 = CARTESIAN_POINT ( 'NONE',  ( 4.860316984116058100E-016, 0.0000000000000000000, 3.968750000000000000 ) ) ;
#40 = AXIS2_PLACEMENT_3D ( 'NONE', #214, #215, #219 ) ;
#41 = CC_DESIGN_PERSON_AND_ORGANIZATION_ASSIGNMENT ( #192, #182, ( #121 ) ) ;
#42 = APPROVAL_PERSON_ORGANIZATION ( #177, #143, #133 ) ;
#43 = EDGE_CURVE ( 'NONE', #127, #95, #162, .T. ) ;
#44 = DIRECTION ( 'NONE',  ( 0.0000000000000000000, 0.0000000000000000000, 1.000000000000000000 ) ) ;
#45 = DIRECTION ( 'NONE',  ( 0.0000000000000000000, 0.0000000000000000000, 1.000000000000000000 ) ) ;
#46 = LOCAL_TIME ( 15, 35, 0.0000000000000000000, #176 ) ;
#47 = ORIENTED_EDGE ( 'NONE', *, *, #54, .T. ) ;
#48 = ORIENTED_EDGE ( 'NONE', *, *, #21, .T. ) ;
#49 = CARTESIAN_POINT ( 'NONE',  ( 0.0000000000000000000, 6.349999999999999600, 0.0000000000000000000 ) ) ;
#50 = CARTESIAN_POINT ( 'NONE',  ( 0.0000000000000000000, 0.0000000000000000000, 0.0000000000000000000 ) ) ;
#51 = PRODUCT_DEFINITION ( 'UNKNOWN', '', #125, #223 ) ;
#52 = CARTESIAN_POINT ( 'NONE',  ( 0.0000000000000000000, 0.0000000000000000000, -3.968750000000000000 ) ) ;
#53 = CALENDAR_DATE ( 2015, 29, 7 ) ;
#54 = EDGE_CURVE ( 'NONE', #59, #95, #153, .T. ) ;
#55 = EDGE_CURVE ( 'NONE', #145, #111, #168, .T. ) ;
#56 = ORIENTED_EDGE ( 'NONE', *, *, #55, .T. ) ;
#57 = DATE_AND_TIME ( #53, #118 ) ;
#58 = FACE_BOUND ( 'NONE', #148, .T. ) ;
#59 = VERTEX_POINT ( 'NONE', #180 ) ;
#60 = AXIS2_PLACEMENT_3D ( 'NONE', #37, #19, #33 ) ;
#61 = APPROVAL ( #159, 'UNSPECIFIED' ) ;
#62 = DIRECTION ( 'NONE',  ( -0.0000000000000000000, -1.000000000000000000, -0.0000000000000000000 ) ) ;
#63 = PERSON_AND_ORGANIZATION ( #35, #128 ) ;
#64 = APPROVAL_PERSON_ORGANIZATION ( #126, #61, #155 ) ;
#65 = DIRECTION ( 'NONE',  ( -0.0000000000000000000, -1.000000000000000000, -0.0000000000000000000 ) ) ;
#66 = FACE_OUTER_BOUND ( 'NONE', #110, .T. ) ;
#67 = CARTESIAN_POINT ( 'NONE',  ( 0.0000000000000000000, 6.349999999999999600, 0.0000000000000000000 ) ) ;
#68 = EDGE_CURVE ( 'NONE', #145, #72, #171, .T. ) ;
#69 = DATE_AND_TIME ( #109, #46 ) ;
#70 = CARTESIAN_POINT ( 'NONE',  ( 3.184081677783118200E-016, 0.0000000000000000000, 2.600000000000000100 ) ) ;
#71 = CARTESIAN_POINT ( 'NONE',  ( 0.0000000000000000000, 6.349999999999999600, -3.968750000000000000 ) ) ;
#72 = VERTEX_POINT ( 'NONE', #220 ) ;
#73 = AXIS2_PLACEMENT_3D ( 'NONE', #67, #62, #30 ) ;
#74 = CC_DESIGN_APPROVAL ( #61, ( #51 ) ) ;
#75 = CIRCLE ( 'NONE', #234, 3.968750000000000000 ) ;
#76 = COORDINATED_UNIVERSAL_TIME_OFFSET ( 5, 0, .BEHIND. ) ;
#77 = ORIENTED_EDGE ( 'NONE', *, *, #31, .T. ) ;
#78 = CARTESIAN_POINT ( 'NONE',  ( 4.860316984116058100E-016, 6.349999999999999600, 3.968750000000000000 ) ) ;
#79 = ORIENTED_EDGE ( 'NONE', *, *, #137, .T. ) ;
#80 = APPROVAL_ROLE ( '' ) ;
#81 = CARTESIAN_POINT ( 'NONE',  ( 3.184081677783118200E-016, 6.349999999999999600, 2.600000000000000100 ) ) ;
#82 = APPROVAL_PERSON_ORGANIZATION ( #230, #238, #80 ) ;
#83 = APPROVAL_STATUS ( 'not_yet_approved' ) ;
#84 = ORIENTED_EDGE ( 'NONE', *, *, #242, .F. ) ;
#85 = SHAPE_DEFINITION_REPRESENTATION ( #129, #188 ) ;
#86 = CARTESIAN_POINT ( 'NONE',  ( 0.0000000000000000000, 6.349999999999999600, 0.0000000000000000000 ) ) ;
#87 = EDGE_LOOP ( 'NONE', ( #122, #103, #139, #88 ) ) ;
#88 = ORIENTED_EDGE ( 'NONE', *, *, #55, .F. ) ;
#89 = DIRECTION ( 'NONE',  ( 0.0000000000000000000, 0.0000000000000000000, -1.000000000000000000 ) ) ;
#90 = ORIENTED_EDGE ( 'NONE', *, *, #196, .T. ) ;
#91 = ORIENTED_EDGE ( 'NONE', *, *, #137, .F. ) ;
#92 = CC_DESIGN_PERSON_AND_ORGANIZATION_ASSIGNMENT ( #29, #151, ( #51 ) ) ;
#93 = COORDINATED_UNIVERSAL_TIME_OFFSET ( 5, 0, .BEHIND. ) ;
#94 = ORIENTED_EDGE ( 'NONE', *, *, #31, .F. ) ;
#95 = VERTEX_POINT ( 'NONE', #164 ) ;
#96 = ORIENTED_EDGE ( 'NONE', *, *, #68, .T. ) ;
#97 = ADVANCED_FACE ( 'NONE', ( #194 ), #161, .T. ) ;
#98 = PERSON_AND_ORGANIZATION ( #35, #128 ) ;
#99 = DATE_AND_TIME ( #10, #5 ) ;
#100 = EDGE_LOOP ( 'NONE', ( #84, #212, #56, #79 ) ) ;
#101 = ORIENTED_EDGE ( 'NONE', *, *, #197, .F. ) ;
#102 = DATE_TIME_ROLE ( 'classification_date' ) ;
#103 = ORIENTED_EDGE ( 'NONE', *, *, #242, .T. ) ;
#104 = ORIENTED_EDGE ( 'NONE', *, *, #197, .T. ) ;
#105 = AXIS2_PLACEMENT_3D ( 'NONE', #225, #115, #34 ) ;
#106 = PERSON_AND_ORGANIZATION_ROLE ( 'classification_officer' ) ;
#107 = CC_DESIGN_DATE_AND_TIME_ASSIGNMENT ( #99, #149, ( #51 ) ) ;
#108 = SECURITY_CLASSIFICATION_LEVEL ( 'unclassified' ) ;
#109 = CALENDAR_DATE ( 2015, 29, 7 ) ;
#110 = EDGE_LOOP ( 'NONE', ( #48, #163, #94, #142 ) ) ;
#111 = VERTEX_POINT ( 'NONE', #52 ) ;
#112 = CARTESIAN_POINT ( 'NONE',  ( 0.0000000000000000000, 6.349999999999999600, 0.0000000000000000000 ) ) ;
#113 = EDGE_LOOP ( 'NONE', ( #6, #104, #47, #186 ) ) ;
#114 = PERSON_AND_ORGANIZATION_ROLE ( 'design_supplier' ) ;
#115 = DIRECTION ( 'NONE',  ( -0.0000000000000000000, -1.000000000000000000, -0.0000000000000000000 ) ) ;
#116 = DIRECTION ( 'NONE',  ( 0.0000000000000000000, 1.000000000000000000, 0.0000000000000000000 ) ) ;
#117 = CARTESIAN_POINT ( 'NONE',  ( 0.0000000000000000000, 0.0000000000000000000, 0.0000000000000000000 ) ) ;
#118 = LOCAL_TIME ( 15, 35, 0.0000000000000000000, #185 ) ;
#119 = ORIENTED_EDGE ( 'NONE', *, *, #21, .F. ) ;
#120 = LINE ( 'NONE', #78, #20 ) ;
#121 = PRODUCT ( 'Nylon Spacer 0.25in', 'Nylon Spacer 0.25in', '', ( #184 ) ) ;
#122 = ORIENTED_EDGE ( 'NONE', *, *, #196, .F. ) ;
#123 = AXIS2_PLACEMENT_3D ( 'NONE', #248, #236, #246 ) ;
#124 = APPROVAL_DATE_TIME ( #134, #143 ) ;
#125 = PRODUCT_DEFINITION_FORMATION_WITH_SPECIFIED_SOURCE ( 'ANY', '', #121, .NOT_KNOWN. ) ;
#126 = PERSON_AND_ORGANIZATION ( #35, #128 ) ;
#127 = VERTEX_POINT ( 'NONE', #70 ) ;
#128 = ORGANIZATION ( 'UNSPECIFIED', 'UNSPECIFIED', '' ) ;
#129 = PRODUCT_DEFINITION_SHAPE ( 'NONE', 'NONE',  #51 ) ;
#130 = EDGE_LOOP ( 'NONE', ( #119, #101 ) ) ;
#131 = PERSON_AND_ORGANIZATION_ROLE ( 'creator' ) ;
#132 = DIRECTION ( 'NONE',  ( 0.0000000000000000000, 1.000000000000000000, 0.0000000000000000000 ) ) ;
#133 = APPROVAL_ROLE ( '' ) ;
#134 = DATE_AND_TIME ( #211, #157 ) ;
#135 = VERTEX_POINT ( 'NONE', #81 ) ;
#136 = APPROVAL_DATE_TIME ( #232, #61 ) ;
#137 = EDGE_CURVE ( 'NONE', #111, #167, #195, .T. ) ;
#138 = CLOSED_SHELL ( 'NONE', ( #240, #97, #243, #173, #38, #169 ) ) ;
#139 = ORIENTED_EDGE ( 'NONE', *, *, #32, .T. ) ;
#140 = APPROVAL_STATUS ( 'not_yet_approved' ) ;
#141 = DIRECTION ( 'NONE',  ( 0.0000000000000000000, -0.0000000000000000000, 1.000000000000000000 ) ) ;
#142 = ORIENTED_EDGE ( 'NONE', *, *, #54, .F. ) ;
#143 = APPROVAL ( #140, 'UNSPECIFIED' ) ;
#144 = AXIS2_PLACEMENT_3D ( 'NONE', #50, #15, #11 ) ;
#145 = VERTEX_POINT ( 'NONE', #71 ) ;
#146 = EDGE_LOOP ( 'NONE', ( #91, #221 ) ) ;
#147 = EDGE_LOOP ( 'NONE', ( #96, #90 ) ) ;
#148 = EDGE_LOOP ( 'NONE', ( #77, #231 ) ) ;
#149 = DATE_TIME_ROLE ( 'creation_date' ) ;
#150 = CIRCLE ( 'NONE', #22, 2.600000000000000100 ) ;
#151 = PERSON_AND_ORGANIZATION_ROLE ( 'creator' ) ;
#152 = DIRECTION ( 'NONE',  ( 0.0000000000000000000, 1.000000000000000000, 0.0000000000000000000 ) ) ;
#153 = LINE ( 'NONE', #165, #181 ) ;
#154 = FACE_OUTER_BOUND ( 'NONE', #100, .T. ) ;
#155 = APPROVAL_ROLE ( '' ) ;
#156 = CC_DESIGN_APPROVAL ( #143, ( #125 ) ) ;
#157 = LOCAL_TIME ( 15, 35, 0.0000000000000000000, #93 ) ;
#158 = FACE_OUTER_BOUND ( 'NONE', #146, .T. ) ;
#159 = APPROVAL_STATUS ( 'not_yet_approved' ) ;
#160 = APPLICATION_PROTOCOL_DEFINITION ( 'international standard', 'config_control_design', 1994, #179 ) ;
#161 = CYLINDRICAL_SURFACE ( 'NONE', #26, 3.968750000000000000 ) ;
#162 = CIRCLE ( 'NONE', #123, 2.600000000000000100 ) ;
#163 = ORIENTED_EDGE ( 'NONE', *, *, #208, .T. ) ;
#164 = CARTESIAN_POINT ( 'NONE',  ( 0.0000000000000000000, 0.0000000000000000000, -2.600000000000000100 ) ) ;
#165 = CARTESIAN_POINT ( 'NONE',  ( 0.0000000000000000000, 6.349999999999999600, -2.600000000000000100 ) ) ;
#166 = CIRCLE ( 'NONE', #249, 2.600000000000000100 ) ;
#167 = VERTEX_POINT ( 'NONE', #39 ) ;
#168 = LINE ( 'NONE', #227, #178 ) ;
#169 = ADVANCED_FACE ( 'NONE', ( #23 ), #228, .F. ) ;
#170 = CYLINDRICAL_SURFACE ( 'NONE', #105, 3.968750000000000000 ) ;
#171 = CIRCLE ( 'NONE', #40, 3.968750000000000000 ) ;
#172 = AXIS2_PLACEMENT_3D ( 'NONE', #112, #28, #224 ) ;
#173 = ADVANCED_FACE ( 'NONE', ( #158, #58 ), #16, .F. ) ;
#174 = MANIFOLD_SOLID_BREP ( 'Boss-Extrude1', #138 ) ;
#175 = CC_DESIGN_PERSON_AND_ORGANIZATION_ASSIGNMENT ( #98, #131, ( #125 ) ) ;
#176 = COORDINATED_UNIVERSAL_TIME_OFFSET ( 5, 0, .BEHIND. ) ;
#177 = PERSON_AND_ORGANIZATION ( #35, #128 ) ;
#178 = VECTOR ( 'NONE', #206, 1000.000000000000000 ) ;
#179 = APPLICATION_CONTEXT ( 'configuration controlled 3d designs of mechanical parts and assemblies' ) ;
#180 = CARTESIAN_POINT ( 'NONE',  ( 0.0000000000000000000, 6.349999999999999600, -2.600000000000000100 ) ) ;
#181 = VECTOR ( 'NONE', #65, 1000.000000000000000 ) ;
#182 = PERSON_AND_ORGANIZATION_ROLE ( 'design_owner' ) ;
#183 = AXIS2_PLACEMENT_3D ( 'NONE', #239, #247, #44 ) ;
#184 = MECHANICAL_CONTEXT ( 'NONE', #200, 'mechanical' ) ;
#185 = COORDINATED_UNIVERSAL_TIME_OFFSET ( 5, 0, .BEHIND. ) ;
#186 = ORIENTED_EDGE ( 'NONE', *, *, #43, .F. ) ;
#187 = FACE_BOUND ( 'NONE', #130, .T. ) ;
#188 = ADVANCED_BREP_SHAPE_REPRESENTATION ( 'Nylon Spacer 0.25in', ( #174, #27 ), #229 ) ;
#189 = DIRECTION ( 'NONE',  ( 1.000000000000000000, 0.0000000000000000000, 0.0000000000000000000 ) ) ;
#190 = DIRECTION ( 'NONE',  ( -0.0000000000000000000, -1.000000000000000000, -0.0000000000000000000 ) ) ;
#191 = DIRECTION ( 'NONE',  ( 0.0000000000000000000, 0.0000000000000000000, 1.000000000000000000 ) ) ;
#192 = PERSON_AND_ORGANIZATION ( #35, #128 ) ;
#193 = CC_DESIGN_PERSON_AND_ORGANIZATION_ASSIGNMENT ( #63, #114, ( #125 ) ) ;
#194 = FACE_OUTER_BOUND ( 'NONE', #87, .T. ) ;
#195 = CIRCLE ( 'NONE', #60, 3.968750000000000000 ) ;
#196 = EDGE_CURVE ( 'NONE', #72, #145, #14, .T. ) ;
#197 = EDGE_CURVE ( 'NONE', #135, #59, #8, .T. ) ;
#198 = CARTESIAN_POINT ( 'NONE',  ( 0.0000000000000000000, 0.0000000000000000000, 0.0000000000000000000 ) ) ;
#199 = CARTESIAN_POINT ( 'NONE',  ( 0.0000000000000000000, 6.349999999999999600, 0.0000000000000000000 ) ) ;
#200 = APPLICATION_CONTEXT ( 'configuration controlled 3d designs of mechanical parts and assemblies' ) ;
#201 = CARTESIAN_POINT ( 'NONE',  ( 0.0000000000000000000, 0.0000000000000000000, 0.0000000000000000000 ) ) ;
#202 = DIRECTION ( 'NONE',  ( -0.0000000000000000000, -1.000000000000000000, -0.0000000000000000000 ) ) ;
#203 = CARTESIAN_POINT ( 'NONE',  ( 3.184081677783118200E-016, 6.349999999999999600, 2.600000000000000100 ) ) ;
#204 = SECURITY_CLASSIFICATION ( '', '', #108 ) ;
#205 = DIRECTION ( 'NONE',  ( 0.0000000000000000000, 0.0000000000000000000, -1.000000000000000000 ) ) ;
#206 = DIRECTION ( 'NONE',  ( -0.0000000000000000000, -1.000000000000000000, -0.0000000000000000000 ) ) ;
#207 = DIRECTION ( 'NONE',  ( -0.0000000000000000000, -1.000000000000000000, -0.0000000000000000000 ) ) ;
#208 = EDGE_CURVE ( 'NONE', #135, #127, #222, .T. ) ;
#209 = LOCAL_TIME ( 15, 35, 0.0000000000000000000, #18 ) ;
#210 = CC_DESIGN_PERSON_AND_ORGANIZATION_ASSIGNMENT ( #17, #106, ( #204 ) ) ;
#211 = CALENDAR_DATE ( 2015, 29, 7 ) ;
#212 = ORIENTED_EDGE ( 'NONE', *, *, #68, .F. ) ;
#213 =( LENGTH_UNIT ( ) NAMED_UNIT ( * ) SI_UNIT ( .MILLI., .METRE. ) );
#214 = CARTESIAN_POINT ( 'NONE',  ( 0.0000000000000000000, 6.349999999999999600, 0.0000000000000000000 ) ) ;
#215 = DIRECTION ( 'NONE',  ( 0.0000000000000000000, 1.000000000000000000, 0.0000000000000000000 ) ) ;
#216 = AXIS2_PLACEMENT_3D ( 'NONE', #49, #1, #89 ) ;
#217 = APPLICATION_PROTOCOL_DEFINITION ( 'international standard', 'config_control_design', 1994, #200 ) ;
#218 =( NAMED_UNIT ( * ) PLANE_ANGLE_UNIT ( ) SI_UNIT ( $, .RADIAN. ) );
#219 = DIRECTION ( 'NONE',  ( 0.0000000000000000000, 0.0000000000000000000, 1.000000000000000000 ) ) ;
#220 = CARTESIAN_POINT ( 'NONE',  ( 4.860316984116058100E-016, 6.349999999999999600, 3.968750000000000000 ) ) ;
#221 = ORIENTED_EDGE ( 'NONE', *, *, #32, .F. ) ;
#222 = LINE ( 'NONE', #203, #24 ) ;
#223 = DESIGN_CONTEXT ( 'detailed design', #179, 'design' ) ;
#224 = DIRECTION ( 'NONE',  ( 0.0000000000000000000, 0.0000000000000000000, 1.000000000000000000 ) ) ;
#225 = CARTESIAN_POINT ( 'NONE',  ( 0.0000000000000000000, 6.349999999999999600, 0.0000000000000000000 ) ) ;
#226 = CC_DESIGN_DATE_AND_TIME_ASSIGNMENT ( #69, #102, ( #204 ) ) ;
#227 = CARTESIAN_POINT ( 'NONE',  ( 0.0000000000000000000, 6.349999999999999600, -3.968750000000000000 ) ) ;
#228 = CYLINDRICAL_SURFACE ( 'NONE', #73, 2.600000000000000100 ) ;
#229 =( GEOMETRIC_REPRESENTATION_CONTEXT ( 3 ) GLOBAL_UNCERTAINTY_ASSIGNED_CONTEXT ( ( #233 ) ) GLOBAL_UNIT_ASSIGNED_CONTEXT ( ( #213, #218, #237 ) ) REPRESENTATION_CONTEXT ( 'NONE', 'WORKASPACE' ) );
#230 = PERSON_AND_ORGANIZATION ( #35, #128 ) ;
#231 = ORIENTED_EDGE ( 'NONE', *, *, #43, .T. ) ;
#232 = DATE_AND_TIME ( #244, #209 ) ;
#233 = UNCERTAINTY_MEASURE_WITH_UNIT (LENGTH_MEASURE( 1.000000000000000100E-005 ), #213, 'distance_accuracy_value', 'NONE');
#234 = AXIS2_PLACEMENT_3D ( 'NONE', #117, #116, #45 ) ;
#235 = PLANE ( 'NONE',  #241 ) ;
#236 = DIRECTION ( 'NONE',  ( 0.0000000000000000000, 1.000000000000000000, 0.0000000000000000000 ) ) ;
#237 =( NAMED_UNIT ( * ) SI_UNIT ( $, .STERADIAN. ) SOLID_ANGLE_UNIT ( ) );
#238 = APPROVAL ( #83, 'UNSPECIFIED' ) ;
#239 = CARTESIAN_POINT ( 'NONE',  ( 0.0000000000000000000, 6.349999999999999600, 0.0000000000000000000 ) ) ;
#240 = ADVANCED_FACE ( 'NONE', ( #66 ), #7, .F. ) ;
#241 = AXIS2_PLACEMENT_3D ( 'NONE', #86, #132, #141 ) ;
#242 = EDGE_CURVE ( 'NONE', #72, #167, #120, .T. ) ;
#243 = ADVANCED_FACE ( 'NONE', ( #36, #187 ), #235, .T. ) ;
#244 = CALENDAR_DATE ( 2015, 29, 7 ) ;
#245 = CC_DESIGN_APPROVAL ( #238, ( #204 ) ) ;
#246 = DIRECTION ( 'NONE',  ( 0.0000000000000000000, 0.0000000000000000000, 1.000000000000000000 ) ) ;
#247 = DIRECTION ( 'NONE',  ( 0.0000000000000000000, 1.000000000000000000, 0.0000000000000000000 ) ) ;
#248 = CARTESIAN_POINT ( 'NONE',  ( 0.0000000000000000000, 0.0000000000000000000, 0.0000000000000000000 ) ) ;
#249 = AXIS2_PLACEMENT_3D ( 'NONE', #201, #3, #2 ) ;
ENDSEC;
END-ISO-10303-21;
