ISO-10303-21;
HEADER;
FILE_DESCRIPTION (( 'STEP AP203' ),
    '1' );
FILE_NAME ('Shim Washer 8mm.step',
    '2015-07-29T19:35:07',
    ( '' ),
    ( '' ),
    'SwSTEP 2.0',
    'SolidWorks 2014',
    '' );
FILE_SCHEMA (( 'CONFIG_CONTROL_DESIGN' ));
ENDSEC;

DATA;
#1 = ADVANCED_FACE ( 'NONE', ( #166, #19 ), #86, .T. ) ;
#2 = PERSON_AND_ORGANIZATION ( #208, #17 ) ;
#3 = CARTESIAN_POINT ( 'NONE',  ( 0.0000000000000000000, 1.149999999999999900, -4.250000000000000000 ) ) ;
#4 = CARTESIAN_POINT ( 'NONE',  ( 0.0000000000000000000, 1.149999999999999900, -4.250000000000000000 ) ) ;
#5 = CALENDAR_DATE ( 2015, 29, 7 ) ;
#6 = CC_DESIGN_PERSON_AND_ORGANIZATION_ASSIGNMENT ( #66, #205, ( #76 ) ) ;
#7 = CALENDAR_DATE ( 2015, 29, 7 ) ;
#8 = VERTEX_POINT ( 'NONE', #81 ) ;
#9 = DATE_AND_TIME ( #7, #65 ) ;
#10 = AXIS2_PLACEMENT_3D ( 'NONE', #122, #18, #89 ) ;
#11 = APPLICATION_PROTOCOL_DEFINITION ( 'international standard', 'config_control_design', 1994, #146 ) ;
#12 = CALENDAR_DATE ( 2015, 29, 7 ) ;
#13 = CALENDAR_DATE ( 2015, 29, 7 ) ;
#14 = CARTESIAN_POINT ( 'NONE',  ( 0.0000000000000000000, 1.149999999999999900, 0.0000000000000000000 ) ) ;
#15 = DIRECTION ( 'NONE',  ( 0.0000000000000000000, 1.000000000000000000, 0.0000000000000000000 ) ) ;
#16 = PERSON_AND_ORGANIZATION ( #208, #17 ) ;
#17 = ORGANIZATION ( 'UNSPECIFIED', 'UNSPECIFIED', '' ) ;
#18 = DIRECTION ( 'NONE',  ( -0.0000000000000000000, -1.000000000000000000, -0.0000000000000000000 ) ) ;
#19 = FACE_BOUND ( 'NONE', #148, .T. ) ;
#20 = CARTESIAN_POINT ( 'NONE',  ( 0.0000000000000000000, 1.149999999999999900, 0.0000000000000000000 ) ) ;
#21 = ADVANCED_FACE ( 'NONE', ( #172 ), #180, .F. ) ;
#22 = CARTESIAN_POINT ( 'NONE',  ( 0.0000000000000000000, 0.0000000000000000000, 0.0000000000000000000 ) ) ;
#23 = ADVANCED_FACE ( 'NONE', ( #169 ), #182, .T. ) ;
#24 = APPROVAL_PERSON_ORGANIZATION ( #243, #201, #203 ) ;
#25 = PRODUCT_DEFINITION ( 'UNKNOWN', '', #79, #67 ) ;
#26 = LINE ( 'NONE', #3, #188 ) ;
#27 = DIRECTION ( 'NONE',  ( 0.0000000000000000000, 1.000000000000000000, 0.0000000000000000000 ) ) ;
#28 = EDGE_CURVE ( 'NONE', #53, #125, #165, .T. ) ;
#29 = EDGE_CURVE ( 'NONE', #176, #108, #171, .T. ) ;
#30 = LOCAL_TIME ( 15, 35, 7.000000000000000000, #31 ) ;
#31 = COORDINATED_UNIVERSAL_TIME_OFFSET ( 5, 0, .BEHIND. ) ;
#32 = CIRCLE ( 'NONE', #168, 4.250000000000000000 ) ;
#33 = DIRECTION ( 'NONE',  ( 0.0000000000000000000, 0.0000000000000000000, 1.000000000000000000 ) ) ;
#34 = DIRECTION ( 'NONE',  ( 0.0000000000000000000, 0.0000000000000000000, 1.000000000000000000 ) ) ;
#35 = APPROVAL_PERSON_ORGANIZATION ( #16, #88, #200 ) ;
#36 = DIRECTION ( 'NONE',  ( 0.0000000000000000000, 0.0000000000000000000, 1.000000000000000000 ) ) ;
#37 = UNCERTAINTY_MEASURE_WITH_UNIT (LENGTH_MEASURE( 1.000000000000000100E-005 ), #92, 'distance_accuracy_value', 'NONE');
#38 = APPROVAL ( #245, 'UNSPECIFIED' ) ;
#39 = DIRECTION ( 'NONE',  ( 0.0000000000000000000, 0.0000000000000000000, 1.000000000000000000 ) ) ;
#40 = EDGE_CURVE ( 'NONE', #53, #164, #175, .T. ) ;
#41 = APPLICATION_PROTOCOL_DEFINITION ( 'international standard', 'config_control_design', 1994, #216 ) ;
#42 = DIRECTION ( 'NONE',  ( 0.0000000000000000000, 1.000000000000000000, 0.0000000000000000000 ) ) ;
#43 = CARTESIAN_POINT ( 'NONE',  ( 0.0000000000000000000, 1.149999999999999900, 0.0000000000000000000 ) ) ;
#44 = FACE_OUTER_BOUND ( 'NONE', #143, .T. ) ;
#45 = ORIENTED_EDGE ( 'NONE', *, *, #116, .T. ) ;
#46 = ORIENTED_EDGE ( 'NONE', *, *, #29, .T. ) ;
#47 = CC_DESIGN_APPROVAL ( #38, ( #25 ) ) ;
#48 = EDGE_CURVE ( 'NONE', #136, #8, #185, .T. ) ;
#49 = MANIFOLD_SOLID_BREP ( 'Boss-Extrude1', #103 ) ;
#50 = DIRECTION ( 'NONE',  ( 0.0000000000000000000, 1.000000000000000000, 0.0000000000000000000 ) ) ;
#51 = DIRECTION ( 'NONE',  ( 0.0000000000000000000, 0.0000000000000000000, 1.000000000000000000 ) ) ;
#52 = ORIENTED_EDGE ( 'NONE', *, *, #28, .T. ) ;
#53 = VERTEX_POINT ( 'NONE', #91 ) ;
#54 = LOCAL_TIME ( 15, 35, 7.000000000000000000, #59 ) ;
#55 = DIRECTION ( 'NONE',  ( 0.0000000000000000000, 1.000000000000000000, 0.0000000000000000000 ) ) ;
#56 = DIRECTION ( 'NONE',  ( 0.0000000000000000000, 0.0000000000000000000, 1.000000000000000000 ) ) ;
#57 = CC_DESIGN_PERSON_AND_ORGANIZATION_ASSIGNMENT ( #206, #241, ( #25 ) ) ;
#58 = DIRECTION ( 'NONE',  ( 0.0000000000000000000, 0.0000000000000000000, -1.000000000000000000 ) ) ;
#59 = COORDINATED_UNIVERSAL_TIME_OFFSET ( 5, 0, .BEHIND. ) ;
#60 = APPROVAL_PERSON_ORGANIZATION ( #61, #38, #170 ) ;
#61 = PERSON_AND_ORGANIZATION ( #208, #17 ) ;
#62 = EDGE_CURVE ( 'NONE', #164, #160, #189, .T. ) ;
#63 = LOCAL_TIME ( 15, 35, 7.000000000000000000, #99 ) ;
#64 = COORDINATED_UNIVERSAL_TIME_OFFSET ( 5, 0, .BEHIND. ) ;
#65 = LOCAL_TIME ( 15, 35, 7.000000000000000000, #64 ) ;
#66 = PERSON_AND_ORGANIZATION ( #208, #17 ) ;
#67 = DESIGN_CONTEXT ( 'detailed design', #216, 'design' ) ;
#68 = DIRECTION ( 'NONE',  ( -0.0000000000000000000, -1.000000000000000000, -0.0000000000000000000 ) ) ;
#69 = CARTESIAN_POINT ( 'NONE',  ( 0.0000000000000000000, 1.149999999999999900, 0.0000000000000000000 ) ) ;
#70 = PERSON_AND_ORGANIZATION ( #208, #17 ) ;
#71 = CC_DESIGN_DATE_AND_TIME_ASSIGNMENT ( #225, #242, ( #25 ) ) ;
#72 = CARTESIAN_POINT ( 'NONE',  ( 7.225416114969385200E-016, 0.0000000000000000000, 5.900000000000001200 ) ) ;
#73 = CARTESIAN_POINT ( 'NONE',  ( 0.0000000000000000000, 1.149999999999999900, 0.0000000000000000000 ) ) ;
#74 = APPROVAL_DATE_TIME ( #9, #88 ) ;
#75 = AXIS2_PLACEMENT_3D ( 'NONE', #22, #27, #33 ) ;
#76 = PRODUCT ( 'Shim Washer 8mm', 'Shim Washer 8mm', '', ( #232 ) ) ;
#77 = CARTESIAN_POINT ( 'NONE',  ( 7.225416114969385200E-016, 1.149999999999999900, 5.900000000000001200 ) ) ;
#78 = CALENDAR_DATE ( 2015, 29, 7 ) ;
#79 = PRODUCT_DEFINITION_FORMATION_WITH_SPECIFIED_SOURCE ( 'ANY', '', #76, .NOT_KNOWN. ) ;
#80 = PERSON_AND_ORGANIZATION_ROLE ( 'classification_officer' ) ;
#81 = CARTESIAN_POINT ( 'NONE',  ( 5.204748896376250700E-016, 1.149999999999999900, 4.250000000000000000 ) ) ;
#82 = CARTESIAN_POINT ( 'NONE',  ( 0.0000000000000000000, 1.149999999999999900, 0.0000000000000000000 ) ) ;
#83 = AXIS2_PLACEMENT_3D ( 'NONE', #84, #50, #230 ) ;
#84 = CARTESIAN_POINT ( 'NONE',  ( 0.0000000000000000000, 1.149999999999999900, 0.0000000000000000000 ) ) ;
#85 = CARTESIAN_POINT ( 'NONE',  ( 0.0000000000000000000, 1.149999999999999900, 0.0000000000000000000 ) ) ;
#86 = PLANE ( 'NONE',  #186 ) ;
#87 = DIRECTION ( 'NONE',  ( 0.0000000000000000000, 0.0000000000000000000, -1.000000000000000000 ) ) ;
#88 = APPROVAL ( #211, 'UNSPECIFIED' ) ;
#89 = DIRECTION ( 'NONE',  ( 0.0000000000000000000, 0.0000000000000000000, -1.000000000000000000 ) ) ;
#90 = AXIS2_PLACEMENT_3D ( 'NONE', #69, #150, #100 ) ;
#91 = CARTESIAN_POINT ( 'NONE',  ( 0.0000000000000000000, 1.149999999999999900, -5.900000000000001200 ) ) ;
#92 =( LENGTH_UNIT ( ) NAMED_UNIT ( * ) SI_UNIT ( .MILLI., .METRE. ) );
#93 = DIRECTION ( 'NONE',  ( 0.0000000000000000000, 1.000000000000000000, 0.0000000000000000000 ) ) ;
#94 = DIRECTION ( 'NONE',  ( 0.0000000000000000000, 1.000000000000000000, 0.0000000000000000000 ) ) ;
#95 = CARTESIAN_POINT ( 'NONE',  ( 0.0000000000000000000, 1.149999999999999900, -5.900000000000001200 ) ) ;
#96 = CC_DESIGN_APPROVAL ( #88, ( #79 ) ) ;
#97 = CARTESIAN_POINT ( 'NONE',  ( 7.225416114969385200E-016, 1.149999999999999900, 5.900000000000001200 ) ) ;
#98 = DIRECTION ( 'NONE',  ( -0.0000000000000000000, -1.000000000000000000, -0.0000000000000000000 ) ) ;
#99 = COORDINATED_UNIVERSAL_TIME_OFFSET ( 5, 0, .BEHIND. ) ;
#100 = DIRECTION ( 'NONE',  ( 0.0000000000000000000, 0.0000000000000000000, -1.000000000000000000 ) ) ;
#101 = AXIS2_PLACEMENT_3D ( 'NONE', #246, #231, #34 ) ;
#102 = ADVANCED_FACE ( 'NONE', ( #184 ), #181, .T. ) ;
#103 = CLOSED_SHELL ( 'NONE', ( #21, #102, #1, #224, #23, #178 ) ) ;
#104 = ORIENTED_EDGE ( 'NONE', *, *, #40, .F. ) ;
#105 = CC_DESIGN_PERSON_AND_ORGANIZATION_ASSIGNMENT ( #2, #117, ( #79 ) ) ;
#106 = DIRECTION ( 'NONE',  ( 0.0000000000000000000, 0.0000000000000000000, 1.000000000000000000 ) ) ;
#107 = ORIENTED_EDGE ( 'NONE', *, *, #228, .F. ) ;
#108 = VERTEX_POINT ( 'NONE', #233 ) ;
#109 = DIRECTION ( 'NONE',  ( -0.0000000000000000000, -1.000000000000000000, -0.0000000000000000000 ) ) ;
#110 = AXIS2_PLACEMENT_3D ( 'NONE', #20, #93, #106 ) ;
#111 = DIRECTION ( 'NONE',  ( 0.0000000000000000000, -0.0000000000000000000, 1.000000000000000000 ) ) ;
#112 = ORIENTED_EDGE ( 'NONE', *, *, #173, .F. ) ;
#113 = ORIENTED_EDGE ( 'NONE', *, *, #193, .F. ) ;
#114 = ORIENTED_EDGE ( 'NONE', *, *, #62, .T. ) ;
#115 = ORIENTED_EDGE ( 'NONE', *, *, #191, .F. ) ;
#116 = EDGE_CURVE ( 'NONE', #8, #136, #202, .T. ) ;
#117 = PERSON_AND_ORGANIZATION_ROLE ( 'creator' ) ;
#118 = ORIENTED_EDGE ( 'NONE', *, *, #193, .T. ) ;
#119 = AXIS2_PLACEMENT_3D ( 'NONE', #126, #139, #145 ) ;
#120 = ORIENTED_EDGE ( 'NONE', *, *, #151, .T. ) ;
#121 = ORIENTED_EDGE ( 'NONE', *, *, #173, .T. ) ;
#122 = CARTESIAN_POINT ( 'NONE',  ( 0.0000000000000000000, 1.149999999999999900, 0.0000000000000000000 ) ) ;
#123 = ORIENTED_EDGE ( 'NONE', *, *, #228, .T. ) ;
#124 = SHAPE_DEFINITION_REPRESENTATION ( #221, #210 ) ;
#125 = VERTEX_POINT ( 'NONE', #174 ) ;
#126 = CARTESIAN_POINT ( 'NONE',  ( 0.0000000000000000000, 0.0000000000000000000, 0.0000000000000000000 ) ) ;
#127 = CC_DESIGN_PERSON_AND_ORGANIZATION_ASSIGNMENT ( #218, #190, ( #79 ) ) ;
#128 = AXIS2_PLACEMENT_3D ( 'NONE', #43, #42, #56 ) ;
#129 = ORIENTED_EDGE ( 'NONE', *, *, #40, .T. ) ;
#130 = ORIENTED_EDGE ( 'NONE', *, *, #191, .T. ) ;
#131 = ORIENTED_EDGE ( 'NONE', *, *, #116, .F. ) ;
#132 = AXIS2_PLACEMENT_3D ( 'NONE', #14, #140, #58 ) ;
#133 = ORIENTED_EDGE ( 'NONE', *, *, #48, .F. ) ;
#134 = CARTESIAN_POINT ( 'NONE',  ( 0.0000000000000000000, 0.0000000000000000000, 0.0000000000000000000 ) ) ;
#135 = ORIENTED_EDGE ( 'NONE', *, *, #151, .F. ) ;
#136 = VERTEX_POINT ( 'NONE', #4 ) ;
#137 =( NAMED_UNIT ( * ) PLANE_ANGLE_UNIT ( ) SI_UNIT ( $, .RADIAN. ) );
#138 = CARTESIAN_POINT ( 'NONE',  ( 0.0000000000000000000, 0.0000000000000000000, 0.0000000000000000000 ) ) ;
#139 = DIRECTION ( 'NONE',  ( 0.0000000000000000000, 1.000000000000000000, 0.0000000000000000000 ) ) ;
#140 = DIRECTION ( 'NONE',  ( -0.0000000000000000000, -1.000000000000000000, -0.0000000000000000000 ) ) ;
#141 = DATE_TIME_ROLE ( 'classification_date' ) ;
#142 = ORIENTED_EDGE ( 'NONE', *, *, #28, .F. ) ;
#143 = EDGE_LOOP ( 'NONE', ( #112, #45, #123, #154 ) ) ;
#144 = SECURITY_CLASSIFICATION ( '', '', #192 ) ;
#145 = DIRECTION ( 'NONE',  ( 0.0000000000000000000, 0.0000000000000000000, 1.000000000000000000 ) ) ;
#146 = APPLICATION_CONTEXT ( 'configuration controlled 3d designs of mechanical parts and assemblies' ) ;
#147 = EDGE_LOOP ( 'NONE', ( #156, #121, #162, #107 ) ) ;
#148 = EDGE_LOOP ( 'NONE', ( #133, #131 ) ) ;
#149 = EDGE_LOOP ( 'NONE', ( #155, #104, #52, #118 ) ) ;
#150 = DIRECTION ( 'NONE',  ( -0.0000000000000000000, -1.000000000000000000, -0.0000000000000000000 ) ) ;
#151 = EDGE_CURVE ( 'NONE', #160, #125, #194, .T. ) ;
#152 = EDGE_LOOP ( 'NONE', ( #113, #135 ) ) ;
#153 = EDGE_LOOP ( 'NONE', ( #161, #46 ) ) ;
#154 = ORIENTED_EDGE ( 'NONE', *, *, #29, .F. ) ;
#155 = ORIENTED_EDGE ( 'NONE', *, *, #62, .F. ) ;
#156 = ORIENTED_EDGE ( 'NONE', *, *, #48, .T. ) ;
#157 = EDGE_LOOP ( 'NONE', ( #129, #130 ) ) ;
#158 = APPROVAL_DATE_TIME ( #222, #201 ) ;
#159 = EDGE_LOOP ( 'NONE', ( #115, #114, #120, #142 ) ) ;
#160 = VERTEX_POINT ( 'NONE', #72 ) ;
#161 = ORIENTED_EDGE ( 'NONE', *, *, #249, .T. ) ;
#162 = ORIENTED_EDGE ( 'NONE', *, *, #249, .F. ) ;
#163 = CC_DESIGN_PERSON_AND_ORGANIZATION_ASSIGNMENT ( #70, #80, ( #144 ) ) ;
#164 = VERTEX_POINT ( 'NONE', #97 ) ;
#165 = LINE ( 'NONE', #95, #167 ) ;
#166 = FACE_OUTER_BOUND ( 'NONE', #157, .T. ) ;
#167 = VECTOR ( 'NONE', #98, 1000.000000000000000 ) ;
#168 = AXIS2_PLACEMENT_3D ( 'NONE', #229, #15, #51 ) ;
#169 = FACE_OUTER_BOUND ( 'NONE', #149, .T. ) ;
#170 = APPROVAL_ROLE ( '' ) ;
#171 = CIRCLE ( 'NONE', #119, 4.250000000000000000 ) ;
#172 = FACE_OUTER_BOUND ( 'NONE', #147, .T. ) ;
#173 = EDGE_CURVE ( 'NONE', #8, #176, #226, .T. ) ;
#174 = CARTESIAN_POINT ( 'NONE',  ( 0.0000000000000000000, 0.0000000000000000000, -5.900000000000001200 ) ) ;
#175 = CIRCLE ( 'NONE', #235, 5.900000000000001200 ) ;
#176 = VERTEX_POINT ( 'NONE', #179 ) ;
#177 = DIRECTION ( 'NONE',  ( -0.0000000000000000000, -1.000000000000000000, -0.0000000000000000000 ) ) ;
#178 = ADVANCED_FACE ( 'NONE', ( #44 ), #220, .F. ) ;
#179 = CARTESIAN_POINT ( 'NONE',  ( 5.204748896376250700E-016, 0.0000000000000000000, 4.250000000000000000 ) ) ;
#180 = CYLINDRICAL_SURFACE ( 'NONE', #10, 4.250000000000000000 ) ;
#181 = CYLINDRICAL_SURFACE ( 'NONE', #90, 5.900000000000001200 ) ;
#182 = CYLINDRICAL_SURFACE ( 'NONE', #237, 5.900000000000001200 ) ;
#183 = CC_DESIGN_DATE_AND_TIME_ASSIGNMENT ( #217, #141, ( #144 ) ) ;
#184 = FACE_OUTER_BOUND ( 'NONE', #159, .T. ) ;
#185 = CIRCLE ( 'NONE', #128, 4.250000000000000000 ) ;
#186 = AXIS2_PLACEMENT_3D ( 'NONE', #82, #94, #111 ) ;
#187 = AXIS2_PLACEMENT_3D ( 'NONE', #138, #234, #248 ) ;
#188 = VECTOR ( 'NONE', #240, 1000.000000000000000 ) ;
#189 = LINE ( 'NONE', #77, #197 ) ;
#190 = PERSON_AND_ORGANIZATION_ROLE ( 'design_supplier' ) ;
#191 = EDGE_CURVE ( 'NONE', #164, #53, #215, .T. ) ;
#192 = SECURITY_CLASSIFICATION_LEVEL ( 'unclassified' ) ;
#193 = EDGE_CURVE ( 'NONE', #125, #160, #219, .T. ) ;
#194 = CIRCLE ( 'NONE', #75, 5.900000000000001200 ) ;
#195 = CARTESIAN_POINT ( 'NONE',  ( 5.204748896376250700E-016, 1.149999999999999900, 4.250000000000000000 ) ) ;
#196 = APPROVAL_STATUS ( 'not_yet_approved' ) ;
#197 = VECTOR ( 'NONE', #68, 1000.000000000000000 ) ;
#198 = DIRECTION ( 'NONE',  ( 1.000000000000000000, 0.0000000000000000000, 0.0000000000000000000 ) ) ;
#199 = DATE_AND_TIME ( #5, #54 ) ;
#200 = APPROVAL_ROLE ( '' ) ;
#201 = APPROVAL ( #196, 'UNSPECIFIED' ) ;
#202 = CIRCLE ( 'NONE', #83, 4.250000000000000000 ) ;
#203 = APPROVAL_ROLE ( '' ) ;
#204 = PLANE ( 'NONE',  #187 ) ;
#205 = PERSON_AND_ORGANIZATION_ROLE ( 'design_owner' ) ;
#206 = PERSON_AND_ORGANIZATION ( #208, #17 ) ;
#207 =( GEOMETRIC_REPRESENTATION_CONTEXT ( 3 ) GLOBAL_UNCERTAINTY_ASSIGNED_CONTEXT ( ( #37 ) ) GLOBAL_UNIT_ASSIGNED_CONTEXT ( ( #92, #137, #213 ) ) REPRESENTATION_CONTEXT ( 'NONE', 'WORKASPACE' ) );
#208 = PERSON ( 'UNSPECIFIED', 'UNSPECIFIED', 'UNSPECIFIED', ('UNSPECIFIED'), ('UNSPECIFIED'), ('UNSPECIFIED') ) ;
#209 = FACE_OUTER_BOUND ( 'NONE', #152, .T. ) ;
#210 = ADVANCED_BREP_SHAPE_REPRESENTATION ( 'Shim Washer 8mm', ( #49, #244 ), #207 ) ;
#211 = APPROVAL_STATUS ( 'not_yet_approved' ) ;
#212 = CC_DESIGN_APPROVAL ( #201, ( #144 ) ) ;
#213 =( NAMED_UNIT ( * ) SI_UNIT ( $, .STERADIAN. ) SOLID_ANGLE_UNIT ( ) );
#214 = VECTOR ( 'NONE', #177, 1000.000000000000000 ) ;
#215 = CIRCLE ( 'NONE', #110, 5.900000000000001200 ) ;
#216 = APPLICATION_CONTEXT ( 'configuration controlled 3d designs of mechanical parts and assemblies' ) ;
#217 = DATE_AND_TIME ( #78, #30 ) ;
#218 = PERSON_AND_ORGANIZATION ( #208, #17 ) ;
#219 = CIRCLE ( 'NONE', #101, 5.900000000000001200 ) ;
#220 = CYLINDRICAL_SURFACE ( 'NONE', #132, 4.250000000000000000 ) ;
#221 = PRODUCT_DEFINITION_SHAPE ( 'NONE', 'NONE',  #25 ) ;
#222 = DATE_AND_TIME ( #12, #63 ) ;
#223 = FACE_BOUND ( 'NONE', #153, .T. ) ;
#224 = ADVANCED_FACE ( 'NONE', ( #209, #223 ), #204, .F. ) ;
#225 = DATE_AND_TIME ( #13, #247 ) ;
#226 = LINE ( 'NONE', #195, #214 ) ;
#227 = CC_DESIGN_SECURITY_CLASSIFICATION ( #144, ( #79 ) ) ;
#228 = EDGE_CURVE ( 'NONE', #136, #108, #26, .T. ) ;
#229 = CARTESIAN_POINT ( 'NONE',  ( 0.0000000000000000000, 0.0000000000000000000, 0.0000000000000000000 ) ) ;
#230 = DIRECTION ( 'NONE',  ( 0.0000000000000000000, 0.0000000000000000000, 1.000000000000000000 ) ) ;
#231 = DIRECTION ( 'NONE',  ( 0.0000000000000000000, 1.000000000000000000, 0.0000000000000000000 ) ) ;
#232 = MECHANICAL_CONTEXT ( 'NONE', #146, 'mechanical' ) ;
#233 = CARTESIAN_POINT ( 'NONE',  ( 0.0000000000000000000, 0.0000000000000000000, -4.250000000000000000 ) ) ;
#234 = DIRECTION ( 'NONE',  ( 0.0000000000000000000, 1.000000000000000000, 0.0000000000000000000 ) ) ;
#235 = AXIS2_PLACEMENT_3D ( 'NONE', #73, #55, #39 ) ;
#236 = PRODUCT_RELATED_PRODUCT_CATEGORY ( 'detail', '', ( #76 ) ) ;
#237 = AXIS2_PLACEMENT_3D ( 'NONE', #85, #109, #87 ) ;
#238 = APPROVAL_DATE_TIME ( #199, #38 ) ;
#239 = COORDINATED_UNIVERSAL_TIME_OFFSET ( 5, 0, .BEHIND. ) ;
#240 = DIRECTION ( 'NONE',  ( -0.0000000000000000000, -1.000000000000000000, -0.0000000000000000000 ) ) ;
#241 = PERSON_AND_ORGANIZATION_ROLE ( 'creator' ) ;
#242 = DATE_TIME_ROLE ( 'creation_date' ) ;
#243 = PERSON_AND_ORGANIZATION ( #208, #17 ) ;
#244 = AXIS2_PLACEMENT_3D ( 'NONE', #134, #36, #198 ) ;
#245 = APPROVAL_STATUS ( 'not_yet_approved' ) ;
#246 = CARTESIAN_POINT ( 'NONE',  ( 0.0000000000000000000, 0.0000000000000000000, 0.0000000000000000000 ) ) ;
#247 = LOCAL_TIME ( 15, 35, 7.000000000000000000, #239 ) ;
#248 = DIRECTION ( 'NONE',  ( 0.0000000000000000000, -0.0000000000000000000, 1.000000000000000000 ) ) ;
#249 = EDGE_CURVE ( 'NONE', #108, #176, #32, .T. ) ;
ENDSEC;
END-ISO-10303-21;
