ISO-10303-21;
HEADER;
FILE_DESCRIPTION (( 'STEP AP203' ),
    '1' );
FILE_NAME ('Precision Shim 8 x 5 x 1.step',
    '2015-07-29T19:35:05',
    ( '' ),
    ( '' ),
    'SwSTEP 2.0',
    'SolidWorks 2014',
    '' );
FILE_SCHEMA (( 'CONFIG_CONTROL_DESIGN' ));
ENDSEC;

DATA;
#1 = PERSON_AND_ORGANIZATION_ROLE ( 'classification_officer' ) ;
#2 = AXIS2_PLACEMENT_3D ( 'NONE', #18, #55, #248 ) ;
#3 = APPROVAL_PERSON_ORGANIZATION ( #64, #4, #241 ) ;
#4 = APPROVAL ( #119, 'UNSPECIFIED' ) ;
#5 = COORDINATED_UNIVERSAL_TIME_OFFSET ( 5, 0, .BEHIND. ) ;
#6 =( GEOMETRIC_REPRESENTATION_CONTEXT ( 3 ) GLOBAL_UNCERTAINTY_ASSIGNED_CONTEXT ( ( #33 ) ) GLOBAL_UNIT_ASSIGNED_CONTEXT ( ( #197, #57, #116 ) ) REPRESENTATION_CONTEXT ( 'NONE', 'WORKASPACE' ) );
#7 = DATE_AND_TIME ( #8, #98 ) ;
#8 = CALENDAR_DATE ( 2015, 29, 7 ) ;
#9 = CARTESIAN_POINT ( 'NONE',  ( 3.061616997868383100E-016, 1.000000000000000000, 2.500000000000000000 ) ) ;
#10 = LOCAL_TIME ( 15, 35, 5.000000000000000000, #5 ) ;
#11 = DIRECTION ( 'NONE',  ( -0.0000000000000000000, -1.000000000000000000, -0.0000000000000000000 ) ) ;
#12 = PERSON_AND_ORGANIZATION ( #217, #52 ) ;
#13 = COORDINATED_UNIVERSAL_TIME_OFFSET ( 5, 0, .BEHIND. ) ;
#14 = CARTESIAN_POINT ( 'NONE',  ( 0.0000000000000000000, 1.000000000000000000, 0.0000000000000000000 ) ) ;
#15 = APPROVAL_DATE_TIME ( #7, #164 ) ;
#16 = CC_DESIGN_APPROVAL ( #4, ( #222 ) ) ;
#17 = PERSON_AND_ORGANIZATION ( #217, #52 ) ;
#18 = CARTESIAN_POINT ( 'NONE',  ( 0.0000000000000000000, 1.000000000000000000, 0.0000000000000000000 ) ) ;
#19 = ADVANCED_FACE ( 'NONE', ( #165, #235 ), #244, .F. ) ;
#20 = LOCAL_TIME ( 15, 35, 5.000000000000000000, #13 ) ;
#21 = EDGE_CURVE ( 'NONE', #104, #114, #167, .T. ) ;
#22 = DATE_AND_TIME ( #60, #20 ) ;
#23 = COORDINATED_UNIVERSAL_TIME_OFFSET ( 5, 0, .BEHIND. ) ;
#24 = MANIFOLD_SOLID_BREP ( 'Boss-Extrude1', #58 ) ;
#25 = EDGE_CURVE ( 'NONE', #146, #152, #163, .T. ) ;
#26 = APPROVAL_DATE_TIME ( #69, #4 ) ;
#27 = EDGE_LOOP ( 'NONE', ( #90, #97 ) ) ;
#28 = FACE_BOUND ( 'NONE', #27, .T. ) ;
#29 = CARTESIAN_POINT ( 'NONE',  ( 0.0000000000000000000, 1.000000000000000000, 0.0000000000000000000 ) ) ;
#30 = DIRECTION ( 'NONE',  ( -0.0000000000000000000, -1.000000000000000000, -0.0000000000000000000 ) ) ;
#31 = APPROVAL_STATUS ( 'not_yet_approved' ) ;
#32 = COORDINATED_UNIVERSAL_TIME_OFFSET ( 5, 0, .BEHIND. ) ;
#33 = UNCERTAINTY_MEASURE_WITH_UNIT (LENGTH_MEASURE( 1.000000000000000100E-005 ), #197, 'distance_accuracy_value', 'NONE');
#34 = EDGE_CURVE ( 'NONE', #133, #146, #79, .T. ) ;
#35 = CALENDAR_DATE ( 2015, 29, 7 ) ;
#36 = ADVANCED_FACE ( 'NONE', ( #168 ), #179, .F. ) ;
#37 = EDGE_LOOP ( 'NONE', ( #132, #121 ) ) ;
#38 = AXIS2_PLACEMENT_3D ( 'NONE', #220, #11, #181 ) ;
#39 = EDGE_CURVE ( 'NONE', #106, #104, #173, .T. ) ;
#40 = PLANE ( 'NONE',  #243 ) ;
#41 = CARTESIAN_POINT ( 'NONE',  ( 0.0000000000000000000, 0.0000000000000000000, 0.0000000000000000000 ) ) ;
#42 = PERSON_AND_ORGANIZATION ( #217, #52 ) ;
#43 = CARTESIAN_POINT ( 'NONE',  ( 0.0000000000000000000, 1.000000000000000000, -2.500000000000000000 ) ) ;
#44 = APPROVAL_PERSON_ORGANIZATION ( #50, #81, #73 ) ;
#45 = DIRECTION ( 'NONE',  ( 0.0000000000000000000, -0.0000000000000000000, 1.000000000000000000 ) ) ;
#46 = ADVANCED_FACE ( 'NONE', ( #221 ), #185, .F. ) ;
#47 = CARTESIAN_POINT ( 'NONE',  ( 0.0000000000000000000, 1.000000000000000000, 0.0000000000000000000 ) ) ;
#48 = DIRECTION ( 'NONE',  ( 0.0000000000000000000, 0.0000000000000000000, -1.000000000000000000 ) ) ;
#49 = AXIS2_PLACEMENT_3D ( 'NONE', #41, #148, #143 ) ;
#50 = PERSON_AND_ORGANIZATION ( #217, #52 ) ;
#51 = PERSON_AND_ORGANIZATION ( #217, #52 ) ;
#52 = ORGANIZATION ( 'UNSPECIFIED', 'UNSPECIFIED', '' ) ;
#53 = PERSON_AND_ORGANIZATION ( #217, #52 ) ;
#54 = APPLICATION_PROTOCOL_DEFINITION ( 'international standard', 'config_control_design', 1994, #74 ) ;
#55 = DIRECTION ( 'NONE',  ( 0.0000000000000000000, 1.000000000000000000, 0.0000000000000000000 ) ) ;
#56 = EDGE_CURVE ( 'NONE', #127, #114, #180, .T. ) ;
#57 =( NAMED_UNIT ( * ) PLANE_ANGLE_UNIT ( ) SI_UNIT ( $, .RADIAN. ) );
#58 = CLOSED_SHELL ( 'NONE', ( #36, #161, #223, #19, #198, #46 ) ) ;
#59 = CC_DESIGN_PERSON_AND_ORGANIZATION_ASSIGNMENT ( #51, #77, ( #201 ) ) ;
#60 = CALENDAR_DATE ( 2015, 29, 7 ) ;
#61 = APPROVAL_STATUS ( 'not_yet_approved' ) ;
#62 = APPLICATION_PROTOCOL_DEFINITION ( 'international standard', 'config_control_design', 1994, #240 ) ;
#63 = DIRECTION ( 'NONE',  ( 0.0000000000000000000, 0.0000000000000000000, 1.000000000000000000 ) ) ;
#64 = PERSON_AND_ORGANIZATION ( #217, #52 ) ;
#65 = DIRECTION ( 'NONE',  ( 0.0000000000000000000, 1.000000000000000000, 0.0000000000000000000 ) ) ;
#66 = PERSON_AND_ORGANIZATION_ROLE ( 'creator' ) ;
#67 = PERSON_AND_ORGANIZATION ( #217, #52 ) ;
#68 = EDGE_CURVE ( 'NONE', #106, #127, #174, .T. ) ;
#69 = DATE_AND_TIME ( #126, #192 ) ;
#70 = VECTOR ( 'NONE', #175, 1000.000000000000000 ) ;
#71 = PRODUCT_DEFINITION ( 'UNKNOWN', '', #142, #212 ) ;
#72 = DIRECTION ( 'NONE',  ( 0.0000000000000000000, 1.000000000000000000, 0.0000000000000000000 ) ) ;
#73 = APPROVAL_ROLE ( '' ) ;
#74 = APPLICATION_CONTEXT ( 'configuration controlled 3d designs of mechanical parts and assemblies' ) ;
#75 = CYLINDRICAL_SURFACE ( 'NONE', #224, 4.000000000000000000 ) ;
#76 = DIRECTION ( 'NONE',  ( 0.0000000000000000000, 0.0000000000000000000, 1.000000000000000000 ) ) ;
#77 = PERSON_AND_ORGANIZATION_ROLE ( 'design_owner' ) ;
#78 = CARTESIAN_POINT ( 'NONE',  ( 0.0000000000000000000, 1.000000000000000000, 0.0000000000000000000 ) ) ;
#79 = CIRCLE ( 'NONE', #2, 4.000000000000000000 ) ;
#80 = DIRECTION ( 'NONE',  ( 0.0000000000000000000, 0.0000000000000000000, 1.000000000000000000 ) ) ;
#81 = APPROVAL ( #61, 'UNSPECIFIED' ) ;
#82 = DIRECTION ( 'NONE',  ( 0.0000000000000000000, 0.0000000000000000000, -1.000000000000000000 ) ) ;
#83 = PERSON_AND_ORGANIZATION_ROLE ( 'design_supplier' ) ;
#84 = DIRECTION ( 'NONE',  ( 0.0000000000000000000, 1.000000000000000000, 0.0000000000000000000 ) ) ;
#85 = CARTESIAN_POINT ( 'NONE',  ( 0.0000000000000000000, 1.000000000000000000, -2.500000000000000000 ) ) ;
#86 = DIRECTION ( 'NONE',  ( 0.0000000000000000000, 0.0000000000000000000, 1.000000000000000000 ) ) ;
#87 = CC_DESIGN_APPROVAL ( #81, ( #71 ) ) ;
#88 = DIRECTION ( 'NONE',  ( 0.0000000000000000000, 1.000000000000000000, 0.0000000000000000000 ) ) ;
#89 = DIRECTION ( 'NONE',  ( 0.0000000000000000000, 0.0000000000000000000, 1.000000000000000000 ) ) ;
#90 = ORIENTED_EDGE ( 'NONE', *, *, #39, .F. ) ;
#91 = DIRECTION ( 'NONE',  ( 0.0000000000000000000, 0.0000000000000000000, 1.000000000000000000 ) ) ;
#92 = EDGE_CURVE ( 'NONE', #146, #133, #172, .T. ) ;
#93 = ADVANCED_BREP_SHAPE_REPRESENTATION ( 'Precision Shim 8 x 5 x 1', ( #24, #49 ), #6 ) ;
#94 = SECURITY_CLASSIFICATION_LEVEL ( 'unclassified' ) ;
#95 = DIRECTION ( 'NONE',  ( -0.0000000000000000000, -1.000000000000000000, -0.0000000000000000000 ) ) ;
#96 = APPROVAL_DATE_TIME ( #145, #81 ) ;
#97 = ORIENTED_EDGE ( 'NONE', *, *, #160, .F. ) ;
#98 = LOCAL_TIME ( 15, 35, 5.000000000000000000, #176 ) ;
#99 = EDGE_CURVE ( 'NONE', #152, #117, #188, .T. ) ;
#100 = ORIENTED_EDGE ( 'NONE', *, *, #160, .T. ) ;
#101 = EDGE_LOOP ( 'NONE', ( #156, #140 ) ) ;
#102 = ORIENTED_EDGE ( 'NONE', *, *, #56, .F. ) ;
#103 = CC_DESIGN_PERSON_AND_ORGANIZATION_ASSIGNMENT ( #67, #66, ( #71 ) ) ;
#104 = VERTEX_POINT ( 'NONE', #227 ) ;
#105 = PRODUCT_DEFINITION_SHAPE ( 'NONE', 'NONE',  #71 ) ;
#106 = VERTEX_POINT ( 'NONE', #43 ) ;
#107 = CARTESIAN_POINT ( 'NONE',  ( 0.0000000000000000000, 0.0000000000000000000, 0.0000000000000000000 ) ) ;
#108 = ORIENTED_EDGE ( 'NONE', *, *, #249, .T. ) ;
#109 = SHAPE_DEFINITION_REPRESENTATION ( #105, #93 ) ;
#110 = CARTESIAN_POINT ( 'NONE',  ( 0.0000000000000000000, 1.000000000000000000, -4.000000000000000000 ) ) ;
#111 = AXIS2_PLACEMENT_3D ( 'NONE', #78, #200, #124 ) ;
#112 = CARTESIAN_POINT ( 'NONE',  ( 0.0000000000000000000, 1.000000000000000000, 0.0000000000000000000 ) ) ;
#113 = ORIENTED_EDGE ( 'NONE', *, *, #25, .F. ) ;
#114 = VERTEX_POINT ( 'NONE', #154 ) ;
#115 = ORIENTED_EDGE ( 'NONE', *, *, #56, .T. ) ;
#116 =( NAMED_UNIT ( * ) SI_UNIT ( $, .STERADIAN. ) SOLID_ANGLE_UNIT ( ) );
#117 = VERTEX_POINT ( 'NONE', #218 ) ;
#118 = DIRECTION ( 'NONE',  ( -0.0000000000000000000, -1.000000000000000000, -0.0000000000000000000 ) ) ;
#119 = APPROVAL_STATUS ( 'not_yet_approved' ) ;
#120 = ORIENTED_EDGE ( 'NONE', *, *, #21, .T. ) ;
#121 = ORIENTED_EDGE ( 'NONE', *, *, #99, .F. ) ;
#122 = EDGE_LOOP ( 'NONE', ( #113, #135, #136, #137 ) ) ;
#123 = DATE_TIME_ROLE ( 'classification_date' ) ;
#124 = DIRECTION ( 'NONE',  ( 0.0000000000000000000, 0.0000000000000000000, -1.000000000000000000 ) ) ;
#125 = CARTESIAN_POINT ( 'NONE',  ( 0.0000000000000000000, 0.0000000000000000000, 0.0000000000000000000 ) ) ;
#126 = CALENDAR_DATE ( 2015, 29, 7 ) ;
#127 = VERTEX_POINT ( 'NONE', #196 ) ;
#128 = CARTESIAN_POINT ( 'NONE',  ( 4.898587196589412800E-016, 1.000000000000000000, 4.000000000000000000 ) ) ;
#129 = CC_DESIGN_DATE_AND_TIME_ASSIGNMENT ( #22, #147, ( #71 ) ) ;
#130 = AXIS2_PLACEMENT_3D ( 'NONE', #29, #213, #210 ) ;
#131 = ORIENTED_EDGE ( 'NONE', *, *, #249, .F. ) ;
#132 = ORIENTED_EDGE ( 'NONE', *, *, #203, .F. ) ;
#133 = VERTEX_POINT ( 'NONE', #110 ) ;
#134 = AXIS2_PLACEMENT_3D ( 'NONE', #112, #84, #86 ) ;
#135 = ORIENTED_EDGE ( 'NONE', *, *, #34, .F. ) ;
#136 = ORIENTED_EDGE ( 'NONE', *, *, #149, .T. ) ;
#137 = ORIENTED_EDGE ( 'NONE', *, *, #203, .T. ) ;
#138 = CARTESIAN_POINT ( 'NONE',  ( 0.0000000000000000000, 1.000000000000000000, -4.000000000000000000 ) ) ;
#139 = DIRECTION ( 'NONE',  ( 0.0000000000000000000, 1.000000000000000000, 0.0000000000000000000 ) ) ;
#140 = ORIENTED_EDGE ( 'NONE', *, *, #92, .T. ) ;
#141 = ORIENTED_EDGE ( 'NONE', *, *, #25, .T. ) ;
#142 = PRODUCT_DEFINITION_FORMATION_WITH_SPECIFIED_SOURCE ( 'ANY', '', #201, .NOT_KNOWN. ) ;
#143 = DIRECTION ( 'NONE',  ( 1.000000000000000000, 0.0000000000000000000, 0.0000000000000000000 ) ) ;
#144 = EDGE_LOOP ( 'NONE', ( #157, #120, #102, #162 ) ) ;
#145 = DATE_AND_TIME ( #239, #219 ) ;
#146 = VERTEX_POINT ( 'NONE', #225 ) ;
#147 = DATE_TIME_ROLE ( 'creation_date' ) ;
#148 = DIRECTION ( 'NONE',  ( 0.0000000000000000000, 0.0000000000000000000, 1.000000000000000000 ) ) ;
#149 = EDGE_CURVE ( 'NONE', #133, #117, #190, .T. ) ;
#150 = EDGE_LOOP ( 'NONE', ( #115, #108 ) ) ;
#151 = ORIENTED_EDGE ( 'NONE', *, *, #99, .T. ) ;
#152 = VERTEX_POINT ( 'NONE', #207 ) ;
#153 = AXIS2_PLACEMENT_3D ( 'NONE', #107, #88, #63 ) ;
#154 = CARTESIAN_POINT ( 'NONE',  ( 3.061616997868383100E-016, 0.0000000000000000000, 2.500000000000000000 ) ) ;
#155 = ORIENTED_EDGE ( 'NONE', *, *, #149, .F. ) ;
#156 = ORIENTED_EDGE ( 'NONE', *, *, #34, .T. ) ;
#157 = ORIENTED_EDGE ( 'NONE', *, *, #39, .T. ) ;
#158 = ORIENTED_EDGE ( 'NONE', *, *, #68, .T. ) ;
#159 = ORIENTED_EDGE ( 'NONE', *, *, #92, .F. ) ;
#160 = EDGE_CURVE ( 'NONE', #104, #106, #202, .T. ) ;
#161 = ADVANCED_FACE ( 'NONE', ( #184 ), #209, .T. ) ;
#162 = ORIENTED_EDGE ( 'NONE', *, *, #68, .F. ) ;
#163 = LINE ( 'NONE', #128, #247 ) ;
#164 = APPROVAL ( #31, 'UNSPECIFIED' ) ;
#165 = FACE_OUTER_BOUND ( 'NONE', #37, .T. ) ;
#166 = VECTOR ( 'NONE', #118, 1000.000000000000000 ) ;
#167 = LINE ( 'NONE', #9, #166 ) ;
#168 = FACE_OUTER_BOUND ( 'NONE', #144, .T. ) ;
#169 = AXIS2_PLACEMENT_3D ( 'NONE', #125, #234, #80 ) ;
#170 = AXIS2_PLACEMENT_3D ( 'NONE', #47, #139, #89 ) ;
#171 = CARTESIAN_POINT ( 'NONE',  ( 0.0000000000000000000, 0.0000000000000000000, 0.0000000000000000000 ) ) ;
#172 = CIRCLE ( 'NONE', #134, 4.000000000000000000 ) ;
#173 = CIRCLE ( 'NONE', #130, 2.500000000000000000 ) ;
#174 = LINE ( 'NONE', #85, #189 ) ;
#175 = DIRECTION ( 'NONE',  ( -0.0000000000000000000, -1.000000000000000000, -0.0000000000000000000 ) ) ;
#176 = COORDINATED_UNIVERSAL_TIME_OFFSET ( 5, 0, .BEHIND. ) ;
#177 = CARTESIAN_POINT ( 'NONE',  ( 0.0000000000000000000, 1.000000000000000000, 0.0000000000000000000 ) ) ;
#178 = DIRECTION ( 'NONE',  ( -0.0000000000000000000, -1.000000000000000000, -0.0000000000000000000 ) ) ;
#179 = CYLINDRICAL_SURFACE ( 'NONE', #38, 2.500000000000000000 ) ;
#180 = CIRCLE ( 'NONE', #169, 2.500000000000000000 ) ;
#181 = DIRECTION ( 'NONE',  ( 0.0000000000000000000, 0.0000000000000000000, -1.000000000000000000 ) ) ;
#182 = PRODUCT_RELATED_PRODUCT_CATEGORY ( 'detail', '', ( #201 ) ) ;
#183 = CC_DESIGN_APPROVAL ( #164, ( #142 ) ) ;
#184 = FACE_OUTER_BOUND ( 'NONE', #215, .T. ) ;
#185 = CYLINDRICAL_SURFACE ( 'NONE', #111, 2.500000000000000000 ) ;
#186 = AXIS2_PLACEMENT_3D ( 'NONE', #193, #65, #233 ) ;
#187 = AXIS2_PLACEMENT_3D ( 'NONE', #171, #191, #91 ) ;
#188 = CIRCLE ( 'NONE', #153, 4.000000000000000000 ) ;
#189 = VECTOR ( 'NONE', #214, 1000.000000000000000 ) ;
#190 = LINE ( 'NONE', #138, #70 ) ;
#191 = DIRECTION ( 'NONE',  ( 0.0000000000000000000, 1.000000000000000000, 0.0000000000000000000 ) ) ;
#192 = LOCAL_TIME ( 15, 35, 5.000000000000000000, #32 ) ;
#193 = CARTESIAN_POINT ( 'NONE',  ( 0.0000000000000000000, 0.0000000000000000000, 0.0000000000000000000 ) ) ;
#194 = CC_DESIGN_PERSON_AND_ORGANIZATION_ASSIGNMENT ( #12, #228, ( #142 ) ) ;
#195 = FACE_OUTER_BOUND ( 'NONE', #122, .T. ) ;
#196 = CARTESIAN_POINT ( 'NONE',  ( 0.0000000000000000000, 0.0000000000000000000, -2.500000000000000000 ) ) ;
#197 =( LENGTH_UNIT ( ) NAMED_UNIT ( * ) SI_UNIT ( .MILLI., .METRE. ) );
#198 = ADVANCED_FACE ( 'NONE', ( #195 ), #75, .T. ) ;
#199 = CARTESIAN_POINT ( 'NONE',  ( 0.0000000000000000000, 1.000000000000000000, 0.0000000000000000000 ) ) ;
#200 = DIRECTION ( 'NONE',  ( -0.0000000000000000000, -1.000000000000000000, -0.0000000000000000000 ) ) ;
#201 = PRODUCT ( 'Precision Shim 8 x 5 x 1', 'Precision Shim 8 x 5 x 1', '', ( #245 ) ) ;
#202 = CIRCLE ( 'NONE', #170, 2.500000000000000000 ) ;
#203 = EDGE_CURVE ( 'NONE', #117, #152, #206, .T. ) ;
#204 = CC_DESIGN_PERSON_AND_ORGANIZATION_ASSIGNMENT ( #42, #83, ( #142 ) ) ;
#205 = FACE_OUTER_BOUND ( 'NONE', #101, .T. ) ;
#206 = CIRCLE ( 'NONE', #187, 4.000000000000000000 ) ;
#207 = CARTESIAN_POINT ( 'NONE',  ( 4.898587196589412800E-016, 0.0000000000000000000, 4.000000000000000000 ) ) ;
#208 = AXIS2_PLACEMENT_3D ( 'NONE', #14, #95, #82 ) ;
#209 = CYLINDRICAL_SURFACE ( 'NONE', #208, 4.000000000000000000 ) ;
#210 = DIRECTION ( 'NONE',  ( 0.0000000000000000000, 0.0000000000000000000, 1.000000000000000000 ) ) ;
#211 = CIRCLE ( 'NONE', #236, 2.500000000000000000 ) ;
#212 = DESIGN_CONTEXT ( 'detailed design', #240, 'design' ) ;
#213 = DIRECTION ( 'NONE',  ( 0.0000000000000000000, 1.000000000000000000, 0.0000000000000000000 ) ) ;
#214 = DIRECTION ( 'NONE',  ( -0.0000000000000000000, -1.000000000000000000, -0.0000000000000000000 ) ) ;
#215 = EDGE_LOOP ( 'NONE', ( #159, #141, #151, #155 ) ) ;
#216 = DIRECTION ( 'NONE',  ( 0.0000000000000000000, 1.000000000000000000, 0.0000000000000000000 ) ) ;
#217 = PERSON ( 'UNSPECIFIED', 'UNSPECIFIED', 'UNSPECIFIED', ('UNSPECIFIED'), ('UNSPECIFIED'), ('UNSPECIFIED') ) ;
#218 = CARTESIAN_POINT ( 'NONE',  ( 0.0000000000000000000, 0.0000000000000000000, -4.000000000000000000 ) ) ;
#219 = LOCAL_TIME ( 15, 35, 5.000000000000000000, #23 ) ;
#220 = CARTESIAN_POINT ( 'NONE',  ( 0.0000000000000000000, 1.000000000000000000, 0.0000000000000000000 ) ) ;
#221 = FACE_OUTER_BOUND ( 'NONE', #246, .T. ) ;
#222 = SECURITY_CLASSIFICATION ( '', '', #94 ) ;
#223 = ADVANCED_FACE ( 'NONE', ( #205, #28 ), #40, .T. ) ;
#224 = AXIS2_PLACEMENT_3D ( 'NONE', #177, #178, #48 ) ;
#225 = CARTESIAN_POINT ( 'NONE',  ( 4.898587196589412800E-016, 1.000000000000000000, 4.000000000000000000 ) ) ;
#226 = APPROVAL_PERSON_ORGANIZATION ( #17, #164, #230 ) ;
#227 = CARTESIAN_POINT ( 'NONE',  ( 3.061616997868383100E-016, 1.000000000000000000, 2.500000000000000000 ) ) ;
#228 = PERSON_AND_ORGANIZATION_ROLE ( 'creator' ) ;
#229 = CC_DESIGN_PERSON_AND_ORGANIZATION_ASSIGNMENT ( #53, #1, ( #222 ) ) ;
#230 = APPROVAL_ROLE ( '' ) ;
#231 = CARTESIAN_POINT ( 'NONE',  ( 0.0000000000000000000, 0.0000000000000000000, 0.0000000000000000000 ) ) ;
#232 = CC_DESIGN_SECURITY_CLASSIFICATION ( #222, ( #142 ) ) ;
#233 = DIRECTION ( 'NONE',  ( 0.0000000000000000000, -0.0000000000000000000, 1.000000000000000000 ) ) ;
#234 = DIRECTION ( 'NONE',  ( 0.0000000000000000000, 1.000000000000000000, 0.0000000000000000000 ) ) ;
#235 = FACE_BOUND ( 'NONE', #150, .T. ) ;
#236 = AXIS2_PLACEMENT_3D ( 'NONE', #231, #72, #76 ) ;
#237 = ORIENTED_EDGE ( 'NONE', *, *, #21, .F. ) ;
#238 = CC_DESIGN_DATE_AND_TIME_ASSIGNMENT ( #242, #123, ( #222 ) ) ;
#239 = CALENDAR_DATE ( 2015, 29, 7 ) ;
#240 = APPLICATION_CONTEXT ( 'configuration controlled 3d designs of mechanical parts and assemblies' ) ;
#241 = APPROVAL_ROLE ( '' ) ;
#242 = DATE_AND_TIME ( #35, #10 ) ;
#243 = AXIS2_PLACEMENT_3D ( 'NONE', #199, #216, #45 ) ;
#244 = PLANE ( 'NONE',  #186 ) ;
#245 = MECHANICAL_CONTEXT ( 'NONE', #74, 'mechanical' ) ;
#246 = EDGE_LOOP ( 'NONE', ( #237, #100, #158, #131 ) ) ;
#247 = VECTOR ( 'NONE', #30, 1000.000000000000000 ) ;
#248 = DIRECTION ( 'NONE',  ( 0.0000000000000000000, 0.0000000000000000000, 1.000000000000000000 ) ) ;
#249 = EDGE_CURVE ( 'NONE', #114, #127, #211, .T. ) ;
ENDSEC;
END-ISO-10303-21;
