ISO-10303-21;
HEADER;
FILE_DESCRIPTION (( 'STEP AP203' ),
    '1' );
FILE_NAME ('Precision Shim 10 x 5 x 1.step',
    '2015-07-29T19:35:02',
    ( '' ),
    ( '' ),
    'SwSTEP 2.0',
    'SolidWorks 2014',
    '' );
FILE_SCHEMA (( 'CONFIG_CONTROL_DESIGN' ));
ENDSEC;

DATA;
#1 = CARTESIAN_POINT ( 'NONE',  ( 0.0000000000000000000, 0.0000000000000000000, 0.0000000000000000000 ) ) ;
#2 = CC_DESIGN_PERSON_AND_ORGANIZATION_ASSIGNMENT ( #92, #211, ( #238 ) ) ;
#3 = AXIS2_PLACEMENT_3D ( 'NONE', #95, #220, #96 ) ;
#4 = AXIS2_PLACEMENT_3D ( 'NONE', #243, #28, #241 ) ;
#5 = CARTESIAN_POINT ( 'NONE',  ( 0.0000000000000000000, 1.000000000000000000, -5.000000000000000000 ) ) ;
#6 = EDGE_CURVE ( 'NONE', #122, #119, #173, .T. ) ;
#7 = APPLICATION_CONTEXT ( 'configuration controlled 3d designs of mechanical parts and assemblies' ) ;
#8 = FACE_OUTER_BOUND ( 'NONE', #157, .T. ) ;
#9 = DIRECTION ( 'NONE',  ( -0.0000000000000000000, -1.000000000000000000, -0.0000000000000000000 ) ) ;
#10 = PRODUCT_DEFINITION_SHAPE ( 'NONE', 'NONE',  #98 ) ;
#11 = CC_DESIGN_DATE_AND_TIME_ASSIGNMENT ( #165, #71, ( #238 ) ) ;
#12 = DIRECTION ( 'NONE',  ( 0.0000000000000000000, 0.0000000000000000000, -1.000000000000000000 ) ) ;
#13 = ADVANCED_FACE ( 'NONE', ( #76 ), #181, .T. ) ;
#14 = AXIS2_PLACEMENT_3D ( 'NONE', #33, #199, #141 ) ;
#15 = LOCAL_TIME ( 15, 35, 2.000000000000000000, #77 ) ;
#16 = ADVANCED_FACE ( 'NONE', ( #170 ), #202, .F. ) ;
#17 = AXIS2_PLACEMENT_3D ( 'NONE', #191, #162, #186 ) ;
#18 = APPROVAL_PERSON_ORGANIZATION ( #66, #192, #242 ) ;
#19 = COORDINATED_UNIVERSAL_TIME_OFFSET ( 5, 0, .BEHIND. ) ;
#20 = CARTESIAN_POINT ( 'NONE',  ( 0.0000000000000000000, 1.000000000000000000, 0.0000000000000000000 ) ) ;
#21 = APPROVAL ( #72, 'UNSPECIFIED' ) ;
#22 = VECTOR ( 'NONE', #125, 1000.000000000000000 ) ;
#23 = DIRECTION ( 'NONE',  ( 0.0000000000000000000, -0.0000000000000000000, 1.000000000000000000 ) ) ;
#24 = DATE_TIME_ROLE ( 'creation_date' ) ;
#25 = FACE_OUTER_BOUND ( 'NONE', #148, .T. ) ;
#26 = LOCAL_TIME ( 15, 35, 2.000000000000000000, #19 ) ;
#27 =( GEOMETRIC_REPRESENTATION_CONTEXT ( 3 ) GLOBAL_UNCERTAINTY_ASSIGNED_CONTEXT ( ( #107 ) ) GLOBAL_UNIT_ASSIGNED_CONTEXT ( ( #169, #198, #115 ) ) REPRESENTATION_CONTEXT ( 'NONE', 'WORKASPACE' ) );
#28 = DIRECTION ( 'NONE',  ( 0.0000000000000000000, 1.000000000000000000, 0.0000000000000000000 ) ) ;
#29 = PLANE ( 'NONE',  #14 ) ;
#30 = CALENDAR_DATE ( 2015, 29, 7 ) ;
#31 = EDGE_CURVE ( 'NONE', #103, #119, #176, .T. ) ;
#32 = PERSON ( 'UNSPECIFIED', 'UNSPECIFIED', 'UNSPECIFIED', ('UNSPECIFIED'), ('UNSPECIFIED'), ('UNSPECIFIED') ) ;
#33 = CARTESIAN_POINT ( 'NONE',  ( 0.0000000000000000000, 1.000000000000000000, 0.0000000000000000000 ) ) ;
#34 = PRODUCT ( 'Precision Shim 10 x 5 x 1', 'Precision Shim 10 x 5 x 1', '', ( #63 ) ) ;
#35 = ADVANCED_FACE ( 'NONE', ( #172 ), #54, .T. ) ;
#36 = CALENDAR_DATE ( 2015, 29, 7 ) ;
#37 = CC_DESIGN_APPROVAL ( #21, ( #238 ) ) ;
#38 = DATE_AND_TIME ( #239, #193 ) ;
#39 = CIRCLE ( 'NONE', #130, 2.500000000000000000 ) ;
#40 = CYLINDRICAL_SURFACE ( 'NONE', #245, 2.500000000000000000 ) ;
#41 = DIRECTION ( 'NONE',  ( -0.0000000000000000000, -1.000000000000000000, -0.0000000000000000000 ) ) ;
#42 = APPROVAL_ROLE ( '' ) ;
#43 = LOCAL_TIME ( 15, 35, 2.000000000000000000, #240 ) ;
#44 = CARTESIAN_POINT ( 'NONE',  ( 0.0000000000000000000, 1.000000000000000000, -2.500000000000000000 ) ) ;
#45 = EDGE_CURVE ( 'NONE', #137, #110, #235, .T. ) ;
#46 = APPLICATION_PROTOCOL_DEFINITION ( 'international standard', 'config_control_design', 1994, #7 ) ;
#47 = EDGE_CURVE ( 'NONE', #110, #137, #195, .T. ) ;
#48 = MANIFOLD_SOLID_BREP ( 'Boss-Extrude1', #101 ) ;
#49 = DIRECTION ( 'NONE',  ( 0.0000000000000000000, 0.0000000000000000000, -1.000000000000000000 ) ) ;
#50 = COORDINATED_UNIVERSAL_TIME_OFFSET ( 5, 0, .BEHIND. ) ;
#51 = DATE_AND_TIME ( #184, #43 ) ;
#52 = CC_DESIGN_SECURITY_CLASSIFICATION ( #238, ( #179 ) ) ;
#53 = CARTESIAN_POINT ( 'NONE',  ( 3.061616997868383100E-016, 1.000000000000000000, 2.500000000000000000 ) ) ;
#54 = CYLINDRICAL_SURFACE ( 'NONE', #3, 5.000000000000000000 ) ;
#55 = APPROVAL_DATE_TIME ( #87, #114 ) ;
#56 = ORIENTED_EDGE ( 'NONE', *, *, #57, .F. ) ;
#57 = EDGE_CURVE ( 'NONE', #137, #156, #201, .T. ) ;
#58 = EDGE_CURVE ( 'NONE', #156, #153, #178, .T. ) ;
#59 = CIRCLE ( 'NONE', #4, 2.500000000000000000 ) ;
#60 = FACE_OUTER_BOUND ( 'NONE', #155, .T. ) ;
#61 = VECTOR ( 'NONE', #41, 1000.000000000000000 ) ;
#62 = CARTESIAN_POINT ( 'NONE',  ( 0.0000000000000000000, 0.0000000000000000000, -5.000000000000000000 ) ) ;
#63 = MECHANICAL_CONTEXT ( 'NONE', #7, 'mechanical' ) ;
#64 = PRODUCT_RELATED_PRODUCT_CATEGORY ( 'detail', '', ( #34 ) ) ;
#65 = DESIGN_CONTEXT ( 'detailed design', #78, 'design' ) ;
#66 = PERSON_AND_ORGANIZATION ( #32, #89 ) ;
#67 = CARTESIAN_POINT ( 'NONE',  ( 0.0000000000000000000, 1.000000000000000000, 0.0000000000000000000 ) ) ;
#68 = AXIS2_PLACEMENT_3D ( 'NONE', #118, #84, #12 ) ;
#69 = APPROVAL_ROLE ( '' ) ;
#70 = CARTESIAN_POINT ( 'NONE',  ( 0.0000000000000000000, 1.000000000000000000, 0.0000000000000000000 ) ) ;
#71 = DATE_TIME_ROLE ( 'classification_date' ) ;
#72 = APPROVAL_STATUS ( 'not_yet_approved' ) ;
#73 = AXIS2_PLACEMENT_3D ( 'NONE', #225, #167, #113 ) ;
#74 = EDGE_CURVE ( 'NONE', #153, #156, #226, .T. ) ;
#75 = ORIENTED_EDGE ( 'NONE', *, *, #47, .F. ) ;
#76 = FACE_OUTER_BOUND ( 'NONE', #154, .T. ) ;
#77 = COORDINATED_UNIVERSAL_TIME_OFFSET ( 5, 0, .BEHIND. ) ;
#78 = APPLICATION_CONTEXT ( 'configuration controlled 3d designs of mechanical parts and assemblies' ) ;
#79 = AXIS2_PLACEMENT_3D ( 'NONE', #175, #163, #248 ) ;
#80 = APPROVAL_PERSON_ORGANIZATION ( #131, #21, #69 ) ;
#81 = APPROVAL_PERSON_ORGANIZATION ( #82, #114, #42 ) ;
#82 = PERSON_AND_ORGANIZATION ( #32, #89 ) ;
#83 = PLANE ( 'NONE',  #205 ) ;
#84 = DIRECTION ( 'NONE',  ( -0.0000000000000000000, -1.000000000000000000, -0.0000000000000000000 ) ) ;
#85 = DIRECTION ( 'NONE',  ( 0.0000000000000000000, 0.0000000000000000000, -1.000000000000000000 ) ) ;
#86 = PERSON_AND_ORGANIZATION ( #32, #89 ) ;
#87 = DATE_AND_TIME ( #120, #15 ) ;
#88 = DIRECTION ( 'NONE',  ( 0.0000000000000000000, 0.0000000000000000000, 1.000000000000000000 ) ) ;
#89 = ORGANIZATION ( 'UNSPECIFIED', 'UNSPECIFIED', '' ) ;
#90 = DIRECTION ( 'NONE',  ( -0.0000000000000000000, -1.000000000000000000, -0.0000000000000000000 ) ) ;
#91 = APPLICATION_PROTOCOL_DEFINITION ( 'international standard', 'config_control_design', 1994, #78 ) ;
#92 = PERSON_AND_ORGANIZATION ( #32, #89 ) ;
#93 = CARTESIAN_POINT ( 'NONE',  ( 3.061616997868383100E-016, 0.0000000000000000000, 2.500000000000000000 ) ) ;
#94 = CC_DESIGN_PERSON_AND_ORGANIZATION_ASSIGNMENT ( #86, #224, ( #34 ) ) ;
#95 = CARTESIAN_POINT ( 'NONE',  ( 0.0000000000000000000, 1.000000000000000000, 0.0000000000000000000 ) ) ;
#96 = DIRECTION ( 'NONE',  ( 0.0000000000000000000, 0.0000000000000000000, -1.000000000000000000 ) ) ;
#97 = DIRECTION ( 'NONE',  ( 0.0000000000000000000, 1.000000000000000000, 0.0000000000000000000 ) ) ;
#98 = PRODUCT_DEFINITION ( 'UNKNOWN', '', #179, #65 ) ;
#99 = COORDINATED_UNIVERSAL_TIME_OFFSET ( 5, 0, .BEHIND. ) ;
#100 = CARTESIAN_POINT ( 'NONE',  ( 0.0000000000000000000, 1.000000000000000000, -2.500000000000000000 ) ) ;
#101 = CLOSED_SHELL ( 'NONE', ( #16, #13, #232, #145, #35, #177 ) ) ;
#102 = ORIENTED_EDGE ( 'NONE', *, *, #6, .T. ) ;
#103 = VERTEX_POINT ( 'NONE', #100 ) ;
#104 = EDGE_CURVE ( 'NONE', #110, #153, #210, .T. ) ;
#105 = ORIENTED_EDGE ( 'NONE', *, *, #104, .T. ) ;
#106 = ORIENTED_EDGE ( 'NONE', *, *, #222, .F. ) ;
#107 = UNCERTAINTY_MEASURE_WITH_UNIT (LENGTH_MEASURE( 1.000000000000000100E-005 ), #169, 'distance_accuracy_value', 'NONE');
#108 = ORIENTED_EDGE ( 'NONE', *, *, #222, .T. ) ;
#109 = ORIENTED_EDGE ( 'NONE', *, *, #58, .T. ) ;
#110 = VERTEX_POINT ( 'NONE', #135 ) ;
#111 = ORIENTED_EDGE ( 'NONE', *, *, #147, .T. ) ;
#112 = ORIENTED_EDGE ( 'NONE', *, *, #45, .T. ) ;
#113 = DIRECTION ( 'NONE',  ( 0.0000000000000000000, 0.0000000000000000000, 1.000000000000000000 ) ) ;
#114 = APPROVAL ( #190, 'UNSPECIFIED' ) ;
#115 =( NAMED_UNIT ( * ) SI_UNIT ( $, .STERADIAN. ) SOLID_ANGLE_UNIT ( ) );
#116 = DATE_AND_TIME ( #36, #26 ) ;
#117 = ORIENTED_EDGE ( 'NONE', *, *, #74, .F. ) ;
#118 = CARTESIAN_POINT ( 'NONE',  ( 0.0000000000000000000, 1.000000000000000000, 0.0000000000000000000 ) ) ;
#119 = VERTEX_POINT ( 'NONE', #209 ) ;
#120 = CALENDAR_DATE ( 2015, 29, 7 ) ;
#121 = ORIENTED_EDGE ( 'NONE', *, *, #188, .F. ) ;
#122 = VERTEX_POINT ( 'NONE', #93 ) ;
#123 = CARTESIAN_POINT ( 'NONE',  ( 3.061616997868383100E-016, 1.000000000000000000, 2.500000000000000000 ) ) ;
#124 = APPROVAL_DATE_TIME ( #116, #192 ) ;
#125 = DIRECTION ( 'NONE',  ( -0.0000000000000000000, -1.000000000000000000, -0.0000000000000000000 ) ) ;
#126 = ORIENTED_EDGE ( 'NONE', *, *, #47, .T. ) ;
#127 = ORIENTED_EDGE ( 'NONE', *, *, #58, .F. ) ;
#128 = ORIENTED_EDGE ( 'NONE', *, *, #104, .F. ) ;
#129 = CC_DESIGN_APPROVAL ( #114, ( #98 ) ) ;
#130 = AXIS2_PLACEMENT_3D ( 'NONE', #203, #97, #229 ) ;
#131 = PERSON_AND_ORGANIZATION ( #32, #89 ) ;
#132 = ORIENTED_EDGE ( 'NONE', *, *, #147, .F. ) ;
#133 = EDGE_LOOP ( 'NONE', ( #128, #138, #143, #109 ) ) ;
#134 = ORIENTED_EDGE ( 'NONE', *, *, #188, .T. ) ;
#135 = CARTESIAN_POINT ( 'NONE',  ( 6.123233995736766300E-016, 1.000000000000000000, 5.000000000000000000 ) ) ;
#136 = CARTESIAN_POINT ( 'NONE',  ( 0.0000000000000000000, 1.000000000000000000, 0.0000000000000000000 ) ) ;
#137 = VERTEX_POINT ( 'NONE', #5 ) ;
#138 = ORIENTED_EDGE ( 'NONE', *, *, #45, .F. ) ;
#139 = ORIENTED_EDGE ( 'NONE', *, *, #249, .T. ) ;
#140 = ORIENTED_EDGE ( 'NONE', *, *, #31, .T. ) ;
#141 = DIRECTION ( 'NONE',  ( 0.0000000000000000000, -0.0000000000000000000, 1.000000000000000000 ) ) ;
#142 = CC_DESIGN_PERSON_AND_ORGANIZATION_ASSIGNMENT ( #247, #204, ( #98 ) ) ;
#143 = ORIENTED_EDGE ( 'NONE', *, *, #57, .T. ) ;
#144 = EDGE_LOOP ( 'NONE', ( #121, #132 ) ) ;
#145 = ADVANCED_FACE ( 'NONE', ( #25, #219 ), #83, .F. ) ;
#146 = CARTESIAN_POINT ( 'NONE',  ( 0.0000000000000000000, 1.000000000000000000, -5.000000000000000000 ) ) ;
#147 = EDGE_CURVE ( 'NONE', #151, #103, #39, .T. ) ;
#148 = EDGE_LOOP ( 'NONE', ( #127, #117 ) ) ;
#149 = ORIENTED_EDGE ( 'NONE', *, *, #249, .F. ) ;
#150 = ORIENTED_EDGE ( 'NONE', *, *, #74, .T. ) ;
#151 = VERTEX_POINT ( 'NONE', #53 ) ;
#152 = ORIENTED_EDGE ( 'NONE', *, *, #6, .F. ) ;
#153 = VERTEX_POINT ( 'NONE', #187 ) ;
#154 = EDGE_LOOP ( 'NONE', ( #75, #105, #150, #56 ) ) ;
#155 = EDGE_LOOP ( 'NONE', ( #112, #126 ) ) ;
#156 = VERTEX_POINT ( 'NONE', #62 ) ;
#157 = EDGE_LOOP ( 'NONE', ( #106, #111, #140, #152 ) ) ;
#158 = ORIENTED_EDGE ( 'NONE', *, *, #31, .F. ) ;
#159 = DIRECTION ( 'NONE',  ( -0.0000000000000000000, -1.000000000000000000, -0.0000000000000000000 ) ) ;
#160 = CC_DESIGN_DATE_AND_TIME_ASSIGNMENT ( #51, #24, ( #98 ) ) ;
#161 = EDGE_LOOP ( 'NONE', ( #134, #108, #149, #158 ) ) ;
#162 = DIRECTION ( 'NONE',  ( 0.0000000000000000000, 1.000000000000000000, 0.0000000000000000000 ) ) ;
#163 = DIRECTION ( 'NONE',  ( 0.0000000000000000000, 0.0000000000000000000, 1.000000000000000000 ) ) ;
#164 = DIRECTION ( 'NONE',  ( 0.0000000000000000000, 1.000000000000000000, 0.0000000000000000000 ) ) ;
#165 = DATE_AND_TIME ( #30, #180 ) ;
#166 = EDGE_LOOP ( 'NONE', ( #139, #102 ) ) ;
#167 = DIRECTION ( 'NONE',  ( 0.0000000000000000000, 1.000000000000000000, 0.0000000000000000000 ) ) ;
#168 = AXIS2_PLACEMENT_3D ( 'NONE', #1, #185, #88 ) ;
#169 =( LENGTH_UNIT ( ) NAMED_UNIT ( * ) SI_UNIT ( .MILLI., .METRE. ) );
#170 = FACE_OUTER_BOUND ( 'NONE', #161, .T. ) ;
#171 = PERSON_AND_ORGANIZATION_ROLE ( 'design_supplier' ) ;
#172 = FACE_OUTER_BOUND ( 'NONE', #133, .T. ) ;
#173 = CIRCLE ( 'NONE', #73, 2.500000000000000000 ) ;
#174 = PERSON_AND_ORGANIZATION_ROLE ( 'creator' ) ;
#175 = CARTESIAN_POINT ( 'NONE',  ( 0.0000000000000000000, 0.0000000000000000000, 0.0000000000000000000 ) ) ;
#176 = LINE ( 'NONE', #44, #183 ) ;
#177 = ADVANCED_FACE ( 'NONE', ( #8 ), #40, .F. ) ;
#178 = CIRCLE ( 'NONE', #168, 5.000000000000000000 ) ;
#179 = PRODUCT_DEFINITION_FORMATION_WITH_SPECIFIED_SOURCE ( 'ANY', '', #34, .NOT_KNOWN. ) ;
#180 = LOCAL_TIME ( 15, 35, 2.000000000000000000, #50 ) ;
#181 = CYLINDRICAL_SURFACE ( 'NONE', #182, 5.000000000000000000 ) ;
#182 = AXIS2_PLACEMENT_3D ( 'NONE', #136, #90, #85 ) ;
#183 = VECTOR ( 'NONE', #207, 1000.000000000000000 ) ;
#184 = CALENDAR_DATE ( 2015, 29, 7 ) ;
#185 = DIRECTION ( 'NONE',  ( 0.0000000000000000000, 1.000000000000000000, 0.0000000000000000000 ) ) ;
#186 = DIRECTION ( 'NONE',  ( 0.0000000000000000000, 0.0000000000000000000, 1.000000000000000000 ) ) ;
#187 = CARTESIAN_POINT ( 'NONE',  ( 6.123233995736766300E-016, 0.0000000000000000000, 5.000000000000000000 ) ) ;
#188 = EDGE_CURVE ( 'NONE', #103, #151, #227, .T. ) ;
#189 = PERSON_AND_ORGANIZATION ( #32, #89 ) ;
#190 = APPROVAL_STATUS ( 'not_yet_approved' ) ;
#191 = CARTESIAN_POINT ( 'NONE',  ( 0.0000000000000000000, 1.000000000000000000, 0.0000000000000000000 ) ) ;
#192 = APPROVAL ( #223, 'UNSPECIFIED' ) ;
#193 = LOCAL_TIME ( 15, 35, 2.000000000000000000, #99 ) ;
#194 = DIRECTION ( 'NONE',  ( 0.0000000000000000000, 0.0000000000000000000, 1.000000000000000000 ) ) ;
#195 = CIRCLE ( 'NONE', #197, 5.000000000000000000 ) ;
#196 = ADVANCED_BREP_SHAPE_REPRESENTATION ( 'Precision Shim 10 x 5 x 1', ( #48, #79 ), #27 ) ;
#197 = AXIS2_PLACEMENT_3D ( 'NONE', #20, #221, #230 ) ;
#198 =( NAMED_UNIT ( * ) PLANE_ANGLE_UNIT ( ) SI_UNIT ( $, .RADIAN. ) );
#199 = DIRECTION ( 'NONE',  ( 0.0000000000000000000, 1.000000000000000000, 0.0000000000000000000 ) ) ;
#200 = CC_DESIGN_APPROVAL ( #192, ( #179 ) ) ;
#201 = LINE ( 'NONE', #146, #216 ) ;
#202 = CYLINDRICAL_SURFACE ( 'NONE', #68, 2.500000000000000000 ) ;
#203 = CARTESIAN_POINT ( 'NONE',  ( 0.0000000000000000000, 1.000000000000000000, 0.0000000000000000000 ) ) ;
#204 = PERSON_AND_ORGANIZATION_ROLE ( 'creator' ) ;
#205 = AXIS2_PLACEMENT_3D ( 'NONE', #237, #206, #23 ) ;
#206 = DIRECTION ( 'NONE',  ( 0.0000000000000000000, 1.000000000000000000, 0.0000000000000000000 ) ) ;
#207 = DIRECTION ( 'NONE',  ( -0.0000000000000000000, -1.000000000000000000, -0.0000000000000000000 ) ) ;
#208 = LINE ( 'NONE', #123, #61 ) ;
#209 = CARTESIAN_POINT ( 'NONE',  ( 0.0000000000000000000, 0.0000000000000000000, -2.500000000000000000 ) ) ;
#210 = LINE ( 'NONE', #218, #22 ) ;
#211 = PERSON_AND_ORGANIZATION_ROLE ( 'classification_officer' ) ;
#212 = SECURITY_CLASSIFICATION_LEVEL ( 'unclassified' ) ;
#213 = SHAPE_DEFINITION_REPRESENTATION ( #10, #196 ) ;
#214 = CC_DESIGN_PERSON_AND_ORGANIZATION_ASSIGNMENT ( #189, #174, ( #179 ) ) ;
#215 = APPROVAL_DATE_TIME ( #38, #21 ) ;
#216 = VECTOR ( 'NONE', #159, 1000.000000000000000 ) ;
#217 = FACE_BOUND ( 'NONE', #144, .T. ) ;
#218 = CARTESIAN_POINT ( 'NONE',  ( 6.123233995736766300E-016, 1.000000000000000000, 5.000000000000000000 ) ) ;
#219 = FACE_BOUND ( 'NONE', #166, .T. ) ;
#220 = DIRECTION ( 'NONE',  ( -0.0000000000000000000, -1.000000000000000000, -0.0000000000000000000 ) ) ;
#221 = DIRECTION ( 'NONE',  ( 0.0000000000000000000, 1.000000000000000000, 0.0000000000000000000 ) ) ;
#222 = EDGE_CURVE ( 'NONE', #151, #122, #208, .T. ) ;
#223 = APPROVAL_STATUS ( 'not_yet_approved' ) ;
#224 = PERSON_AND_ORGANIZATION_ROLE ( 'design_owner' ) ;
#225 = CARTESIAN_POINT ( 'NONE',  ( 0.0000000000000000000, 0.0000000000000000000, 0.0000000000000000000 ) ) ;
#226 = CIRCLE ( 'NONE', #231, 5.000000000000000000 ) ;
#227 = CIRCLE ( 'NONE', #233, 2.500000000000000000 ) ;
#228 = CC_DESIGN_PERSON_AND_ORGANIZATION_ASSIGNMENT ( #234, #171, ( #179 ) ) ;
#229 = DIRECTION ( 'NONE',  ( 0.0000000000000000000, 0.0000000000000000000, 1.000000000000000000 ) ) ;
#230 = DIRECTION ( 'NONE',  ( 0.0000000000000000000, 0.0000000000000000000, 1.000000000000000000 ) ) ;
#231 = AXIS2_PLACEMENT_3D ( 'NONE', #236, #164, #246 ) ;
#232 = ADVANCED_FACE ( 'NONE', ( #60, #217 ), #29, .T. ) ;
#233 = AXIS2_PLACEMENT_3D ( 'NONE', #70, #244, #194 ) ;
#234 = PERSON_AND_ORGANIZATION ( #32, #89 ) ;
#235 = CIRCLE ( 'NONE', #17, 5.000000000000000000 ) ;
#236 = CARTESIAN_POINT ( 'NONE',  ( 0.0000000000000000000, 0.0000000000000000000, 0.0000000000000000000 ) ) ;
#237 = CARTESIAN_POINT ( 'NONE',  ( 0.0000000000000000000, 0.0000000000000000000, 0.0000000000000000000 ) ) ;
#238 = SECURITY_CLASSIFICATION ( '', '', #212 ) ;
#239 = CALENDAR_DATE ( 2015, 29, 7 ) ;
#240 = COORDINATED_UNIVERSAL_TIME_OFFSET ( 5, 0, .BEHIND. ) ;
#241 = DIRECTION ( 'NONE',  ( 0.0000000000000000000, 0.0000000000000000000, 1.000000000000000000 ) ) ;
#242 = APPROVAL_ROLE ( '' ) ;
#243 = CARTESIAN_POINT ( 'NONE',  ( 0.0000000000000000000, 0.0000000000000000000, 0.0000000000000000000 ) ) ;
#244 = DIRECTION ( 'NONE',  ( 0.0000000000000000000, 1.000000000000000000, 0.0000000000000000000 ) ) ;
#245 = AXIS2_PLACEMENT_3D ( 'NONE', #67, #9, #49 ) ;
#246 = DIRECTION ( 'NONE',  ( 0.0000000000000000000, 0.0000000000000000000, 1.000000000000000000 ) ) ;
#247 = PERSON_AND_ORGANIZATION ( #32, #89 ) ;
#248 = DIRECTION ( 'NONE',  ( 1.000000000000000000, 0.0000000000000000000, 0.0000000000000000000 ) ) ;
#249 = EDGE_CURVE ( 'NONE', #119, #122, #59, .T. ) ;
ENDSEC;
END-ISO-10303-21;
