ISO-10303-21;
HEADER;
FILE_DESCRIPTION (( 'STEP AP203' ),
    '1' );
FILE_NAME ('Nylon Spacer 0.125in.step',
    '2015-07-29T19:34:57',
    ( '' ),
    ( '' ),
    'SwSTEP 2.0',
    'SolidWorks 2014',
    '' );
FILE_SCHEMA (( 'CONFIG_CONTROL_DESIGN' ));
ENDSEC;

DATA;
#1 = PERSON_AND_ORGANIZATION_ROLE ( 'design_supplier' ) ;
#2 = EDGE_CURVE ( 'NONE', #147, #112, #242, .T. ) ;
#3 = EDGE_LOOP ( 'NONE', ( #203, #92 ) ) ;
#4 = VERTEX_POINT ( 'NONE', #182 ) ;
#5 = ORIENTED_EDGE ( 'NONE', *, *, #57, .T. ) ;
#6 = APPROVAL_DATE_TIME ( #66, #220 ) ;
#7 = PRODUCT_RELATED_PRODUCT_CATEGORY ( 'detail', '', ( #18 ) ) ;
#8 = CYLINDRICAL_SURFACE ( 'NONE', #223, 3.968750000000000000 ) ;
#9 = CARTESIAN_POINT ( 'NONE',  ( 0.0000000000000000000, 3.174999999999999800, -2.600000000000000100 ) ) ;
#10 = EDGE_CURVE ( 'NONE', #147, #107, #50, .T. ) ;
#11 = APPROVAL_PERSON_ORGANIZATION ( #72, #220, #188 ) ;
#12 = DIRECTION ( 'NONE',  ( 0.0000000000000000000, 0.0000000000000000000, -1.000000000000000000 ) ) ;
#13 = FACE_OUTER_BOUND ( 'NONE', #103, .T. ) ;
#14 = CARTESIAN_POINT ( 'NONE',  ( 3.184081677783118200E-016, 3.174999999999999800, 2.600000000000000100 ) ) ;
#15 = DIRECTION ( 'NONE',  ( -0.0000000000000000000, -1.000000000000000000, -0.0000000000000000000 ) ) ;
#16 = DIRECTION ( 'NONE',  ( 0.0000000000000000000, 1.000000000000000000, 0.0000000000000000000 ) ) ;
#17 = PLANE ( 'NONE',  #221 ) ;
#18 = PRODUCT ( 'Nylon Spacer 0.125in', 'Nylon Spacer 0.125in', '', ( #100 ) ) ;
#19 = CARTESIAN_POINT ( 'NONE',  ( 3.184081677783118200E-016, 0.0000000000000000000, 2.600000000000000100 ) ) ;
#20 = COORDINATED_UNIVERSAL_TIME_OFFSET ( 5, 0, .BEHIND. ) ;
#21 = DIRECTION ( 'NONE',  ( -0.0000000000000000000, -1.000000000000000000, -0.0000000000000000000 ) ) ;
#22 = CARTESIAN_POINT ( 'NONE',  ( 0.0000000000000000000, 3.174999999999999800, 0.0000000000000000000 ) ) ;
#23 = ADVANCED_FACE ( 'NONE', ( #141 ), #184, .F. ) ;
#24 = DIRECTION ( 'NONE',  ( 0.0000000000000000000, 0.0000000000000000000, 1.000000000000000000 ) ) ;
#25 = CIRCLE ( 'NONE', #131, 3.968750000000000000 ) ;
#26 = EDGE_CURVE ( 'NONE', #107, #147, #235, .T. ) ;
#27 = DATE_AND_TIME ( #81, #124 ) ;
#28 = AXIS2_PLACEMENT_3D ( 'NONE', #30, #240, #60 ) ;
#29 = LINE ( 'NONE', #126, #123 ) ;
#30 = CARTESIAN_POINT ( 'NONE',  ( 0.0000000000000000000, 0.0000000000000000000, 0.0000000000000000000 ) ) ;
#31 = PERSON_AND_ORGANIZATION ( #121, #247 ) ;
#32 = ORIENTED_EDGE ( 'NONE', *, *, #105, .F. ) ;
#33 = DATE_TIME_ROLE ( 'creation_date' ) ;
#34 = CIRCLE ( 'NONE', #179, 2.600000000000000100 ) ;
#35 = DIRECTION ( 'NONE',  ( 0.0000000000000000000, 1.000000000000000000, 0.0000000000000000000 ) ) ;
#36 = CARTESIAN_POINT ( 'NONE',  ( 0.0000000000000000000, 3.174999999999999800, 0.0000000000000000000 ) ) ;
#37 = EDGE_CURVE ( 'NONE', #108, #40, #160, .T. ) ;
#38 = DIRECTION ( 'NONE',  ( 0.0000000000000000000, 0.0000000000000000000, 1.000000000000000000 ) ) ;
#39 = PERSON_AND_ORGANIZATION ( #121, #247 ) ;
#40 = VERTEX_POINT ( 'NONE', #213 ) ;
#41 = CARTESIAN_POINT ( 'NONE',  ( 4.860316984116058100E-016, 3.174999999999999800, 3.968750000000000000 ) ) ;
#42 = DIRECTION ( 'NONE',  ( 0.0000000000000000000, 1.000000000000000000, 0.0000000000000000000 ) ) ;
#43 = CC_DESIGN_PERSON_AND_ORGANIZATION_ASSIGNMENT ( #198, #243, ( #18 ) ) ;
#44 = EDGE_CURVE ( 'NONE', #4, #40, #96, .T. ) ;
#45 = FACE_OUTER_BOUND ( 'NONE', #101, .T. ) ;
#46 = DIRECTION ( 'NONE',  ( 0.0000000000000000000, -0.0000000000000000000, 1.000000000000000000 ) ) ;
#47 = DIRECTION ( 'NONE',  ( 0.0000000000000000000, 1.000000000000000000, 0.0000000000000000000 ) ) ;
#48 = COORDINATED_UNIVERSAL_TIME_OFFSET ( 5, 0, .BEHIND. ) ;
#49 = ORIENTED_EDGE ( 'NONE', *, *, #118, .T. ) ;
#50 = CIRCLE ( 'NONE', #232, 2.600000000000000100 ) ;
#51 = VERTEX_POINT ( 'NONE', #192 ) ;
#52 = CARTESIAN_POINT ( 'NONE',  ( 0.0000000000000000000, 3.174999999999999800, 0.0000000000000000000 ) ) ;
#53 = SHAPE_DEFINITION_REPRESENTATION ( #173, #214 ) ;
#54 = VERTEX_POINT ( 'NONE', #19 ) ;
#55 = AXIS2_PLACEMENT_3D ( 'NONE', #78, #76, #68 ) ;
#56 = PRODUCT_DEFINITION ( 'UNKNOWN', '', #117, #201 ) ;
#57 = EDGE_CURVE ( 'NONE', #112, #54, #34, .T. ) ;
#58 = SECURITY_CLASSIFICATION_LEVEL ( 'unclassified' ) ;
#59 = ORIENTED_EDGE ( 'NONE', *, *, #37, .T. ) ;
#60 = DIRECTION ( 'NONE',  ( 1.000000000000000000, 0.0000000000000000000, 0.0000000000000000000 ) ) ;
#61 = EDGE_LOOP ( 'NONE', ( #110, #102, #181, #98 ) ) ;
#62 = CARTESIAN_POINT ( 'NONE',  ( 0.0000000000000000000, 3.174999999999999800, 0.0000000000000000000 ) ) ;
#63 = ORIENTED_EDGE ( 'NONE', *, *, #128, .T. ) ;
#64 = PLANE ( 'NONE',  #82 ) ;
#65 = MANIFOLD_SOLID_BREP ( 'Boss-Extrude1', #237 ) ;
#66 = DATE_AND_TIME ( #109, #159 ) ;
#67 = ADVANCED_FACE ( 'NONE', ( #45, #231 ), #17, .T. ) ;
#68 = DIRECTION ( 'NONE',  ( 0.0000000000000000000, 0.0000000000000000000, 1.000000000000000000 ) ) ;
#69 = EDGE_CURVE ( 'NONE', #40, #4, #127, .T. ) ;
#70 = AXIS2_PLACEMENT_3D ( 'NONE', #36, #35, #24 ) ;
#71 = APPROVAL ( #177, 'UNSPECIFIED' ) ;
#72 = PERSON_AND_ORGANIZATION ( #121, #247 ) ;
#73 = FACE_OUTER_BOUND ( 'NONE', #61, .T. ) ;
#74 = PERSON_AND_ORGANIZATION ( #121, #247 ) ;
#75 = APPLICATION_CONTEXT ( 'configuration controlled 3d designs of mechanical parts and assemblies' ) ;
#76 = DIRECTION ( 'NONE',  ( 0.0000000000000000000, 1.000000000000000000, 0.0000000000000000000 ) ) ;
#77 = VECTOR ( 'NONE', #15, 1000.000000000000000 ) ;
#78 = CARTESIAN_POINT ( 'NONE',  ( 0.0000000000000000000, 0.0000000000000000000, 0.0000000000000000000 ) ) ;
#79 = APPROVAL_ROLE ( '' ) ;
#80 = CARTESIAN_POINT ( 'NONE',  ( 3.184081677783118200E-016, 3.174999999999999800, 2.600000000000000100 ) ) ;
#81 = CALENDAR_DATE ( 2015, 29, 7 ) ;
#82 = AXIS2_PLACEMENT_3D ( 'NONE', #84, #47, #46 ) ;
#83 = CC_DESIGN_APPROVAL ( #71, ( #56 ) ) ;
#84 = CARTESIAN_POINT ( 'NONE',  ( 0.0000000000000000000, 0.0000000000000000000, 0.0000000000000000000 ) ) ;
#85 = FACE_OUTER_BOUND ( 'NONE', #3, .T. ) ;
#86 = CARTESIAN_POINT ( 'NONE',  ( 0.0000000000000000000, 0.0000000000000000000, -2.600000000000000100 ) ) ;
#87 = DATE_AND_TIME ( #132, #180 ) ;
#88 = FACE_OUTER_BOUND ( 'NONE', #106, .T. ) ;
#89 = APPLICATION_PROTOCOL_DEFINITION ( 'international standard', 'config_control_design', 1994, #75 ) ;
#90 = AXIS2_PLACEMENT_3D ( 'NONE', #22, #21, #12 ) ;
#91 = APPROVAL_DATE_TIME ( #138, #71 ) ;
#92 = ORIENTED_EDGE ( 'NONE', *, *, #69, .F. ) ;
#93 =( NAMED_UNIT ( * ) PLANE_ANGLE_UNIT ( ) SI_UNIT ( $, .RADIAN. ) );
#94 = DIRECTION ( 'NONE',  ( -0.0000000000000000000, -1.000000000000000000, -0.0000000000000000000 ) ) ;
#95 = CC_DESIGN_PERSON_AND_ORGANIZATION_ASSIGNMENT ( #39, #130, ( #56 ) ) ;
#96 = CIRCLE ( 'NONE', #197, 3.968750000000000000 ) ;
#97 = APPROVAL_PERSON_ORGANIZATION ( #143, #71, #79 ) ;
#98 = ORIENTED_EDGE ( 'NONE', *, *, #157, .F. ) ;
#99 = ADVANCED_FACE ( 'NONE', ( #85, #176 ), #64, .F. ) ;
#100 = MECHANICAL_CONTEXT ( 'NONE', #239, 'mechanical' ) ;
#101 = EDGE_LOOP ( 'NONE', ( #144, #244 ) ) ;
#102 = ORIENTED_EDGE ( 'NONE', *, *, #26, .T. ) ;
#103 = EDGE_LOOP ( 'NONE', ( #32, #59, #133, #162 ) ) ;
#104 = CC_DESIGN_DATE_AND_TIME_ASSIGNMENT ( #87, #33, ( #56 ) ) ;
#105 = EDGE_CURVE ( 'NONE', #108, #51, #228, .T. ) ;
#106 = EDGE_LOOP ( 'NONE', ( #148, #204, #63, #248 ) ) ;
#107 = VERTEX_POINT ( 'NONE', #80 ) ;
#108 = VERTEX_POINT ( 'NONE', #41 ) ;
#109 = CALENDAR_DATE ( 2015, 29, 7 ) ;
#110 = ORIENTED_EDGE ( 'NONE', *, *, #118, .F. ) ;
#111 = CYLINDRICAL_SURFACE ( 'NONE', #200, 2.600000000000000100 ) ;
#112 = VERTEX_POINT ( 'NONE', #86 ) ;
#113 = DIRECTION ( 'NONE',  ( -0.0000000000000000000, -1.000000000000000000, -0.0000000000000000000 ) ) ;
#114 = APPLICATION_PROTOCOL_DEFINITION ( 'international standard', 'config_control_design', 1994, #239 ) ;
#115 = DATE_AND_TIME ( #165, #219 ) ;
#116 = DIRECTION ( 'NONE',  ( 0.0000000000000000000, 0.0000000000000000000, 1.000000000000000000 ) ) ;
#117 = PRODUCT_DEFINITION_FORMATION_WITH_SPECIFIED_SOURCE ( 'ANY', '', #18, .NOT_KNOWN. ) ;
#118 = EDGE_CURVE ( 'NONE', #107, #54, #172, .T. ) ;
#119 = ADVANCED_FACE ( 'NONE', ( #88 ), #167, .T. ) ;
#120 = CIRCLE ( 'NONE', #249, 2.600000000000000100 ) ;
#121 = PERSON ( 'UNSPECIFIED', 'UNSPECIFIED', 'UNSPECIFIED', ('UNSPECIFIED'), ('UNSPECIFIED'), ('UNSPECIFIED') ) ;
#122 = PERSON_AND_ORGANIZATION ( #121, #247 ) ;
#123 = VECTOR ( 'NONE', #94, 1000.000000000000000 ) ;
#124 = LOCAL_TIME ( 15, 34, 57.00000000000000000, #174 ) ;
#125 = APPROVAL ( #163, 'UNSPECIFIED' ) ;
#126 = CARTESIAN_POINT ( 'NONE',  ( 0.0000000000000000000, 3.174999999999999800, -3.968750000000000000 ) ) ;
#127 = CIRCLE ( 'NONE', #55, 3.968750000000000000 ) ;
#128 = EDGE_CURVE ( 'NONE', #51, #4, #29, .T. ) ;
#129 =( NAMED_UNIT ( * ) SI_UNIT ( $, .STERADIAN. ) SOLID_ANGLE_UNIT ( ) );
#130 = PERSON_AND_ORGANIZATION_ROLE ( 'creator' ) ;
#131 = AXIS2_PLACEMENT_3D ( 'NONE', #52, #42, #38 ) ;
#132 = CALENDAR_DATE ( 2015, 29, 7 ) ;
#133 = ORIENTED_EDGE ( 'NONE', *, *, #69, .T. ) ;
#134 = DIRECTION ( 'NONE',  ( 0.0000000000000000000, 1.000000000000000000, 0.0000000000000000000 ) ) ;
#135 = CARTESIAN_POINT ( 'NONE',  ( 0.0000000000000000000, 0.0000000000000000000, 0.0000000000000000000 ) ) ;
#136 = DIRECTION ( 'NONE',  ( 0.0000000000000000000, 1.000000000000000000, 0.0000000000000000000 ) ) ;
#137 = VECTOR ( 'NONE', #113, 1000.000000000000000 ) ;
#138 = DATE_AND_TIME ( #189, #236 ) ;
#139 = ORIENTED_EDGE ( 'NONE', *, *, #26, .F. ) ;
#140 = CC_DESIGN_APPROVAL ( #125, ( #117 ) ) ;
#141 = FACE_OUTER_BOUND ( 'NONE', #209, .T. ) ;
#142 = APPROVAL_ROLE ( '' ) ;
#143 = PERSON_AND_ORGANIZATION ( #121, #247 ) ;
#144 = ORIENTED_EDGE ( 'NONE', *, *, #154, .T. ) ;
#145 = DIRECTION ( 'NONE',  ( 0.0000000000000000000, 0.0000000000000000000, 1.000000000000000000 ) ) ;
#146 = ORIENTED_EDGE ( 'NONE', *, *, #10, .F. ) ;
#147 = VERTEX_POINT ( 'NONE', #9 ) ;
#148 = ORIENTED_EDGE ( 'NONE', *, *, #37, .F. ) ;
#149 = PERSON_AND_ORGANIZATION_ROLE ( 'creator' ) ;
#150 = DIRECTION ( 'NONE',  ( 0.0000000000000000000, 1.000000000000000000, 0.0000000000000000000 ) ) ;
#151 = DATE_TIME_ROLE ( 'classification_date' ) ;
#152 = DIRECTION ( 'NONE',  ( 0.0000000000000000000, -0.0000000000000000000, 1.000000000000000000 ) ) ;
#153 = CC_DESIGN_PERSON_AND_ORGANIZATION_ASSIGNMENT ( #170, #149, ( #117 ) ) ;
#154 = EDGE_CURVE ( 'NONE', #51, #108, #25, .T. ) ;
#155 = EDGE_LOOP ( 'NONE', ( #146, #139 ) ) ;
#156 = CARTESIAN_POINT ( 'NONE',  ( 0.0000000000000000000, 0.0000000000000000000, 0.0000000000000000000 ) ) ;
#157 = EDGE_CURVE ( 'NONE', #54, #112, #120, .T. ) ;
#158 = ORIENTED_EDGE ( 'NONE', *, *, #2, .F. ) ;
#159 = LOCAL_TIME ( 15, 34, 57.00000000000000000, #217 ) ;
#160 = LINE ( 'NONE', #196, #137 ) ;
#161 = APPROVAL_STATUS ( 'not_yet_approved' ) ;
#162 = ORIENTED_EDGE ( 'NONE', *, *, #128, .F. ) ;
#163 = APPROVAL_STATUS ( 'not_yet_approved' ) ;
#164 = DIRECTION ( 'NONE',  ( -0.0000000000000000000, -1.000000000000000000, -0.0000000000000000000 ) ) ;
#165 = CALENDAR_DATE ( 2015, 29, 7 ) ;
#166 = CC_DESIGN_PERSON_AND_ORGANIZATION_ASSIGNMENT ( #122, #1, ( #117 ) ) ;
#167 = CYLINDRICAL_SURFACE ( 'NONE', #90, 3.968750000000000000 ) ;
#168 = AXIS2_PLACEMENT_3D ( 'NONE', #185, #171, #238 ) ;
#169 = ADVANCED_FACE ( 'NONE', ( #73 ), #111, .F. ) ;
#170 = PERSON_AND_ORGANIZATION ( #121, #247 ) ;
#171 = DIRECTION ( 'NONE',  ( -0.0000000000000000000, -1.000000000000000000, -0.0000000000000000000 ) ) ;
#172 = LINE ( 'NONE', #14, #77 ) ;
#173 = PRODUCT_DEFINITION_SHAPE ( 'NONE', 'NONE',  #56 ) ;
#174 = COORDINATED_UNIVERSAL_TIME_OFFSET ( 5, 0, .BEHIND. ) ;
#175 = SECURITY_CLASSIFICATION ( '', '', #58 ) ;
#176 = FACE_BOUND ( 'NONE', #202, .T. ) ;
#177 = APPROVAL_STATUS ( 'not_yet_approved' ) ;
#178 = AXIS2_PLACEMENT_3D ( 'NONE', #206, #207, #212 ) ;
#179 = AXIS2_PLACEMENT_3D ( 'NONE', #135, #136, #145 ) ;
#180 = LOCAL_TIME ( 15, 34, 57.00000000000000000, #233 ) ;
#181 = ORIENTED_EDGE ( 'NONE', *, *, #2, .T. ) ;
#182 = CARTESIAN_POINT ( 'NONE',  ( 0.0000000000000000000, 0.0000000000000000000, -3.968750000000000000 ) ) ;
#183 = DIRECTION ( 'NONE',  ( 0.0000000000000000000, 0.0000000000000000000, 1.000000000000000000 ) ) ;
#184 = CYLINDRICAL_SURFACE ( 'NONE', #168, 2.600000000000000100 ) ;
#185 = CARTESIAN_POINT ( 'NONE',  ( 0.0000000000000000000, 3.174999999999999800, 0.0000000000000000000 ) ) ;
#186 = DIRECTION ( 'NONE',  ( 0.0000000000000000000, 0.0000000000000000000, 1.000000000000000000 ) ) ;
#187 = DIRECTION ( 'NONE',  ( -0.0000000000000000000, -1.000000000000000000, -0.0000000000000000000 ) ) ;
#188 = APPROVAL_ROLE ( '' ) ;
#189 = CALENDAR_DATE ( 2015, 29, 7 ) ;
#190 = ORIENTED_EDGE ( 'NONE', *, *, #10, .T. ) ;
#191 = CARTESIAN_POINT ( 'NONE',  ( 0.0000000000000000000, 3.174999999999999800, 0.0000000000000000000 ) ) ;
#192 = CARTESIAN_POINT ( 'NONE',  ( 0.0000000000000000000, 3.174999999999999800, -3.968750000000000000 ) ) ;
#193 = DIRECTION ( 'NONE',  ( -0.0000000000000000000, -1.000000000000000000, -0.0000000000000000000 ) ) ;
#194 = CC_DESIGN_PERSON_AND_ORGANIZATION_ASSIGNMENT ( #74, #245, ( #175 ) ) ;
#195 = VECTOR ( 'NONE', #164, 1000.000000000000000 ) ;
#196 = CARTESIAN_POINT ( 'NONE',  ( 4.860316984116058100E-016, 3.174999999999999800, 3.968750000000000000 ) ) ;
#197 = AXIS2_PLACEMENT_3D ( 'NONE', #156, #134, #116 ) ;
#198 = PERSON_AND_ORGANIZATION ( #121, #247 ) ;
#199 = ORIENTED_EDGE ( 'NONE', *, *, #157, .T. ) ;
#200 = AXIS2_PLACEMENT_3D ( 'NONE', #62, #193, #205 ) ;
#201 = DESIGN_CONTEXT ( 'detailed design', #75, 'design' ) ;
#202 = EDGE_LOOP ( 'NONE', ( #5, #199 ) ) ;
#203 = ORIENTED_EDGE ( 'NONE', *, *, #44, .F. ) ;
#204 = ORIENTED_EDGE ( 'NONE', *, *, #154, .F. ) ;
#205 = DIRECTION ( 'NONE',  ( 0.0000000000000000000, 0.0000000000000000000, -1.000000000000000000 ) ) ;
#206 = CARTESIAN_POINT ( 'NONE',  ( 0.0000000000000000000, 3.174999999999999800, 0.0000000000000000000 ) ) ;
#207 = DIRECTION ( 'NONE',  ( 0.0000000000000000000, 1.000000000000000000, 0.0000000000000000000 ) ) ;
#208 = CARTESIAN_POINT ( 'NONE',  ( 0.0000000000000000000, 0.0000000000000000000, 0.0000000000000000000 ) ) ;
#209 = EDGE_LOOP ( 'NONE', ( #190, #49, #234, #158 ) ) ;
#210 = CC_DESIGN_DATE_AND_TIME_ASSIGNMENT ( #115, #151, ( #175 ) ) ;
#211 = DIRECTION ( 'NONE',  ( 0.0000000000000000000, 0.0000000000000000000, -1.000000000000000000 ) ) ;
#212 = DIRECTION ( 'NONE',  ( 0.0000000000000000000, 0.0000000000000000000, 1.000000000000000000 ) ) ;
#213 = CARTESIAN_POINT ( 'NONE',  ( 4.860316984116058100E-016, 0.0000000000000000000, 3.968750000000000000 ) ) ;
#214 = ADVANCED_BREP_SHAPE_REPRESENTATION ( 'Nylon Spacer 0.125in', ( #65, #28 ), #215 ) ;
#215 =( GEOMETRIC_REPRESENTATION_CONTEXT ( 3 ) GLOBAL_UNCERTAINTY_ASSIGNED_CONTEXT ( ( #226 ) ) GLOBAL_UNIT_ASSIGNED_CONTEXT ( ( #227, #93, #129 ) ) REPRESENTATION_CONTEXT ( 'NONE', 'WORKASPACE' ) );
#216 = ADVANCED_FACE ( 'NONE', ( #13 ), #8, .T. ) ;
#217 = COORDINATED_UNIVERSAL_TIME_OFFSET ( 5, 0, .BEHIND. ) ;
#218 = CARTESIAN_POINT ( 'NONE',  ( 0.0000000000000000000, 3.174999999999999800, 0.0000000000000000000 ) ) ;
#219 = LOCAL_TIME ( 15, 34, 57.00000000000000000, #20 ) ;
#220 = APPROVAL ( #161, 'UNSPECIFIED' ) ;
#221 = AXIS2_PLACEMENT_3D ( 'NONE', #218, #150, #152 ) ;
#222 = DIRECTION ( 'NONE',  ( 0.0000000000000000000, 1.000000000000000000, 0.0000000000000000000 ) ) ;
#223 = AXIS2_PLACEMENT_3D ( 'NONE', #246, #187, #211 ) ;
#224 = APPROVAL_DATE_TIME ( #27, #125 ) ;
#225 = CARTESIAN_POINT ( 'NONE',  ( 0.0000000000000000000, 3.174999999999999800, -2.600000000000000100 ) ) ;
#226 = UNCERTAINTY_MEASURE_WITH_UNIT (LENGTH_MEASURE( 1.000000000000000100E-005 ), #227, 'distance_accuracy_value', 'NONE');
#227 =( LENGTH_UNIT ( ) NAMED_UNIT ( * ) SI_UNIT ( .MILLI., .METRE. ) );
#228 = CIRCLE ( 'NONE', #70, 3.968750000000000000 ) ;
#229 = APPROVAL_PERSON_ORGANIZATION ( #31, #125, #142 ) ;
#230 = CC_DESIGN_APPROVAL ( #220, ( #175 ) ) ;
#231 = FACE_BOUND ( 'NONE', #155, .T. ) ;
#232 = AXIS2_PLACEMENT_3D ( 'NONE', #191, #222, #186 ) ;
#233 = COORDINATED_UNIVERSAL_TIME_OFFSET ( 5, 0, .BEHIND. ) ;
#234 = ORIENTED_EDGE ( 'NONE', *, *, #57, .F. ) ;
#235 = CIRCLE ( 'NONE', #178, 2.600000000000000100 ) ;
#236 = LOCAL_TIME ( 15, 34, 57.00000000000000000, #48 ) ;
#237 = CLOSED_SHELL ( 'NONE', ( #23, #216, #67, #99, #119, #169 ) ) ;
#238 = DIRECTION ( 'NONE',  ( 0.0000000000000000000, 0.0000000000000000000, -1.000000000000000000 ) ) ;
#239 = APPLICATION_CONTEXT ( 'configuration controlled 3d designs of mechanical parts and assemblies' ) ;
#240 = DIRECTION ( 'NONE',  ( 0.0000000000000000000, 0.0000000000000000000, 1.000000000000000000 ) ) ;
#241 = CC_DESIGN_SECURITY_CLASSIFICATION ( #175, ( #117 ) ) ;
#242 = LINE ( 'NONE', #225, #195 ) ;
#243 = PERSON_AND_ORGANIZATION_ROLE ( 'design_owner' ) ;
#244 = ORIENTED_EDGE ( 'NONE', *, *, #105, .T. ) ;
#245 = PERSON_AND_ORGANIZATION_ROLE ( 'classification_officer' ) ;
#246 = CARTESIAN_POINT ( 'NONE',  ( 0.0000000000000000000, 3.174999999999999800, 0.0000000000000000000 ) ) ;
#247 = ORGANIZATION ( 'UNSPECIFIED', 'UNSPECIFIED', '' ) ;
#248 = ORIENTED_EDGE ( 'NONE', *, *, #44, .T. ) ;
#249 = AXIS2_PLACEMENT_3D ( 'NONE', #208, #16, #183 ) ;
ENDSEC;
END-ISO-10303-21;
