ISO-10303-21;
HEADER;
FILE_DESCRIPTION (( 'STEP AP203' ),
    '1' );
FILE_NAME ('Flat Washer 0.25in.step',
    '2015-07-29T19:34:50',
    ( '' ),
    ( '' ),
    'SwSTEP 2.0',
    'SolidWorks 2014',
    '' );
FILE_SCHEMA (( 'CONFIG_CONTROL_DESIGN' ));
ENDSEC;

DATA;
#1 = CARTESIAN_POINT ( 'NONE',  ( 0.0000000000000000000, 0.0000000000000000000, 0.0000000000000000000 ) ) ;
#2 = DIRECTION ( 'NONE',  ( 0.0000000000000000000, 1.000000000000000000, 0.0000000000000000000 ) ) ;
#3 = DIRECTION ( 'NONE',  ( 0.0000000000000000000, 0.0000000000000000000, -1.000000000000000000 ) ) ;
#4 = VERTEX_POINT ( 'NONE', #202 ) ;
#5 = AXIS2_PLACEMENT_3D ( 'NONE', #16, #185, #197 ) ;
#6 = UNCERTAINTY_MEASURE_WITH_UNIT (LENGTH_MEASURE( 1.000000000000000100E-005 ), #37, 'distance_accuracy_value', 'NONE');
#7 = VERTEX_POINT ( 'NONE', #205 ) ;
#8 = DIRECTION ( 'NONE',  ( -0.0000000000000000000, -1.000000000000000000, -0.0000000000000000000 ) ) ;
#9 = VECTOR ( 'NONE', #102, 1000.000000000000000 ) ;
#10 = DIRECTION ( 'NONE',  ( 0.0000000000000000000, 0.0000000000000000000, 1.000000000000000000 ) ) ;
#11 = CARTESIAN_POINT ( 'NONE',  ( 0.0000000000000000000, 1.780000000000000000, 0.0000000000000000000 ) ) ;
#12 = AXIS2_PLACEMENT_3D ( 'NONE', #207, #145, #182 ) ;
#13 = CARTESIAN_POINT ( 'NONE',  ( 0.0000000000000000000, 1.780000000000000000, 0.0000000000000000000 ) ) ;
#14 = DIRECTION ( 'NONE',  ( 0.0000000000000000000, 0.0000000000000000000, -1.000000000000000000 ) ) ;
#15 = CYLINDRICAL_SURFACE ( 'NONE', #196, 9.326562499999999600 ) ;
#16 = CARTESIAN_POINT ( 'NONE',  ( 0.0000000000000000000, 1.780000000000000000, 0.0000000000000000000 ) ) ;
#17 = DIRECTION ( 'NONE',  ( 0.0000000000000000000, 1.000000000000000000, 0.0000000000000000000 ) ) ;
#18 = DIRECTION ( 'NONE',  ( -0.0000000000000000000, -1.000000000000000000, -0.0000000000000000000 ) ) ;
#19 = CLOSED_SHELL ( 'NONE', ( #144, #108, #91, #238, #191, #213 ) ) ;
#20 = DESIGN_CONTEXT ( 'detailed design', #45, 'design' ) ;
#21 = CYLINDRICAL_SURFACE ( 'NONE', #130, 3.968750000000000000 ) ;
#22 = APPROVAL ( #83, 'UNSPECIFIED' ) ;
#23 = AXIS2_PLACEMENT_3D ( 'NONE', #114, #86, #49 ) ;
#24 = ORIENTED_EDGE ( 'NONE', *, *, #107, .T. ) ;
#25 = CC_DESIGN_PERSON_AND_ORGANIZATION_ASSIGNMENT ( #28, #36, ( #73 ) ) ;
#26 = CYLINDRICAL_SURFACE ( 'NONE', #142, 9.326562499999999600 ) ;
#27 = CARTESIAN_POINT ( 'NONE',  ( 0.0000000000000000000, 1.780000000000000000, 0.0000000000000000000 ) ) ;
#28 = PERSON_AND_ORGANIZATION ( #206, #245 ) ;
#29 = ORIENTED_EDGE ( 'NONE', *, *, #195, .T. ) ;
#30 = DIRECTION ( 'NONE',  ( 0.0000000000000000000, 0.0000000000000000000, 1.000000000000000000 ) ) ;
#31 = LINE ( 'NONE', #224, #148 ) ;
#32 = DIRECTION ( 'NONE',  ( 0.0000000000000000000, 0.0000000000000000000, -1.000000000000000000 ) ) ;
#33 = DIRECTION ( 'NONE',  ( 0.0000000000000000000, 0.0000000000000000000, 1.000000000000000000 ) ) ;
#34 = COORDINATED_UNIVERSAL_TIME_OFFSET ( 5, 0, .BEHIND. ) ;
#35 = VERTEX_POINT ( 'NONE', #125 ) ;
#36 = PERSON_AND_ORGANIZATION_ROLE ( 'creator' ) ;
#37 =( LENGTH_UNIT ( ) NAMED_UNIT ( * ) SI_UNIT ( .MILLI., .METRE. ) );
#38 = FACE_OUTER_BOUND ( 'NONE', #181, .T. ) ;
#39 = SHAPE_DEFINITION_REPRESENTATION ( #80, #150 ) ;
#40 = ORIENTED_EDGE ( 'NONE', *, *, #166, .F. ) ;
#41 = DATE_TIME_ROLE ( 'classification_date' ) ;
#42 = EDGE_LOOP ( 'NONE', ( #24, #234, #128, #67 ) ) ;
#43 = APPROVAL ( #101, 'UNSPECIFIED' ) ;
#44 = VERTEX_POINT ( 'NONE', #201 ) ;
#45 = APPLICATION_CONTEXT ( 'configuration controlled 3d designs of mechanical parts and assemblies' ) ;
#46 = CARTESIAN_POINT ( 'NONE',  ( 0.0000000000000000000, 1.780000000000000000, 0.0000000000000000000 ) ) ;
#47 = CARTESIAN_POINT ( 'NONE',  ( 0.0000000000000000000, 0.0000000000000000000, 0.0000000000000000000 ) ) ;
#48 = DATE_TIME_ROLE ( 'creation_date' ) ;
#49 = DIRECTION ( 'NONE',  ( 0.0000000000000000000, -0.0000000000000000000, 1.000000000000000000 ) ) ;
#50 = DIRECTION ( 'NONE',  ( 0.0000000000000000000, 1.000000000000000000, 0.0000000000000000000 ) ) ;
#51 = CIRCLE ( 'NONE', #5, 3.968750000000000000 ) ;
#52 = CC_DESIGN_APPROVAL ( #43, ( #198 ) ) ;
#53 = CYLINDRICAL_SURFACE ( 'NONE', #54, 3.968750000000000000 ) ;
#54 = AXIS2_PLACEMENT_3D ( 'NONE', #11, #8, #3 ) ;
#55 = CARTESIAN_POINT ( 'NONE',  ( 0.0000000000000000000, 1.780000000000000000, 0.0000000000000000000 ) ) ;
#56 = FACE_OUTER_BOUND ( 'NONE', #92, .T. ) ;
#57 = DIRECTION ( 'NONE',  ( 0.0000000000000000000, 1.000000000000000000, 0.0000000000000000000 ) ) ;
#58 = ORIENTED_EDGE ( 'NONE', *, *, #143, .F. ) ;
#59 = DIRECTION ( 'NONE',  ( 0.0000000000000000000, 0.0000000000000000000, 1.000000000000000000 ) ) ;
#60 = PRODUCT ( 'Flat Washer 0.25in', 'Flat Washer 0.25in', '', ( #79 ) ) ;
#61 = CARTESIAN_POINT ( 'NONE',  ( 4.860316984116058100E-016, 0.0000000000000000000, 3.968750000000000000 ) ) ;
#62 = APPROVAL_ROLE ( '' ) ;
#63 = CC_DESIGN_SECURITY_CLASSIFICATION ( #198, ( #95 ) ) ;
#64 = CIRCLE ( 'NONE', #115, 9.326562499999999600 ) ;
#65 = DATE_AND_TIME ( #118, #169 ) ;
#66 = PLANE ( 'NONE',  #23 ) ;
#67 = ORIENTED_EDGE ( 'NONE', *, *, #116, .F. ) ;
#68 = CC_DESIGN_DATE_AND_TIME_ASSIGNMENT ( #65, #48, ( #73 ) ) ;
#69 = LINE ( 'NONE', #222, #228 ) ;
#70 = APPROVAL_DATE_TIME ( #127, #22 ) ;
#71 = VERTEX_POINT ( 'NONE', #249 ) ;
#72 = PRODUCT_RELATED_PRODUCT_CATEGORY ( 'detail', '', ( #60 ) ) ;
#73 = PRODUCT_DEFINITION ( 'UNKNOWN', '', #95, #20 ) ;
#74 = AXIS2_PLACEMENT_3D ( 'NONE', #55, #50, #33 ) ;
#75 = PERSON_AND_ORGANIZATION_ROLE ( 'design_owner' ) ;
#76 = EDGE_CURVE ( 'NONE', #164, #71, #241, .T. ) ;
#77 = APPROVAL_PERSON_ORGANIZATION ( #131, #22, #81 ) ;
#78 = ORIENTED_EDGE ( 'NONE', *, *, #166, .T. ) ;
#79 = MECHANICAL_CONTEXT ( 'NONE', #90, 'mechanical' ) ;
#80 = PRODUCT_DEFINITION_SHAPE ( 'NONE', 'NONE',  #73 ) ;
#81 = APPROVAL_ROLE ( '' ) ;
#82 = ORIENTED_EDGE ( 'NONE', *, *, #212, .T. ) ;
#83 = APPROVAL_STATUS ( 'not_yet_approved' ) ;
#84 = EDGE_LOOP ( 'NONE', ( #29, #138 ) ) ;
#85 = AXIS2_PLACEMENT_3D ( 'NONE', #176, #179, #159 ) ;
#86 = DIRECTION ( 'NONE',  ( 0.0000000000000000000, 1.000000000000000000, 0.0000000000000000000 ) ) ;
#87 = APPLICATION_PROTOCOL_DEFINITION ( 'international standard', 'config_control_design', 1994, #45 ) ;
#88 = DIRECTION ( 'NONE',  ( 1.000000000000000000, 0.0000000000000000000, 0.0000000000000000000 ) ) ;
#89 = ORIENTED_EDGE ( 'NONE', *, *, #156, .T. ) ;
#90 = APPLICATION_CONTEXT ( 'configuration controlled 3d designs of mechanical parts and assemblies' ) ;
#91 = ADVANCED_FACE ( 'NONE', ( #38, #141 ), #140, .T. ) ;
#92 = EDGE_LOOP ( 'NONE', ( #216, #82, #246, #132 ) ) ;
#93 = EDGE_CURVE ( 'NONE', #112, #4, #31, .T. ) ;
#94 = ORIENTED_EDGE ( 'NONE', *, *, #93, .F. ) ;
#95 = PRODUCT_DEFINITION_FORMATION_WITH_SPECIFIED_SOURCE ( 'ANY', '', #60, .NOT_KNOWN. ) ;
#96 = APPLICATION_PROTOCOL_DEFINITION ( 'international standard', 'config_control_design', 1994, #90 ) ;
#97 =( NAMED_UNIT ( * ) SI_UNIT ( $, .STERADIAN. ) SOLID_ANGLE_UNIT ( ) );
#98 = VERTEX_POINT ( 'NONE', #229 ) ;
#99 =( NAMED_UNIT ( * ) PLANE_ANGLE_UNIT ( ) SI_UNIT ( $, .RADIAN. ) );
#100 = DIRECTION ( 'NONE',  ( 0.0000000000000000000, 0.0000000000000000000, 1.000000000000000000 ) ) ;
#101 = APPROVAL_STATUS ( 'not_yet_approved' ) ;
#102 = DIRECTION ( 'NONE',  ( -0.0000000000000000000, -1.000000000000000000, -0.0000000000000000000 ) ) ;
#103 = CARTESIAN_POINT ( 'NONE',  ( 0.0000000000000000000, 0.0000000000000000000, 0.0000000000000000000 ) ) ;
#104 = FACE_BOUND ( 'NONE', #84, .T. ) ;
#105 = CARTESIAN_POINT ( 'NONE',  ( 4.860316984116058100E-016, 1.780000000000000000, 3.968750000000000000 ) ) ;
#106 = AXIS2_PLACEMENT_3D ( 'NONE', #27, #57, #59 ) ;
#107 = EDGE_CURVE ( 'NONE', #44, #35, #51, .T. ) ;
#108 = ADVANCED_FACE ( 'NONE', ( #237 ), #26, .T. ) ;
#109 = EDGE_LOOP ( 'NONE', ( #58, #209, #178, #119 ) ) ;
#110 = CIRCLE ( 'NONE', #167, 3.968750000000000000 ) ;
#111 = CC_DESIGN_APPROVAL ( #22, ( #73 ) ) ;
#112 = VERTEX_POINT ( 'NONE', #162 ) ;
#113 = CIRCLE ( 'NONE', #154, 9.326562499999999600 ) ;
#114 = CARTESIAN_POINT ( 'NONE',  ( 0.0000000000000000000, 0.0000000000000000000, 0.0000000000000000000 ) ) ;
#115 = AXIS2_PLACEMENT_3D ( 'NONE', #47, #17, #30 ) ;
#116 = EDGE_CURVE ( 'NONE', #44, #71, #69, .T. ) ;
#117 = CARTESIAN_POINT ( 'NONE',  ( 0.0000000000000000000, 1.780000000000000000, -9.326562499999999600 ) ) ;
#118 = CALENDAR_DATE ( 2015, 29, 7 ) ;
#119 = ORIENTED_EDGE ( 'NONE', *, *, #231, .F. ) ;
#120 = DIRECTION ( 'NONE',  ( -0.0000000000000000000, -1.000000000000000000, -0.0000000000000000000 ) ) ;
#121 = DIRECTION ( 'NONE',  ( 0.0000000000000000000, 0.0000000000000000000, 1.000000000000000000 ) ) ;
#122 = AXIS2_PLACEMENT_3D ( 'NONE', #243, #218, #203 ) ;
#123 = CIRCLE ( 'NONE', #85, 9.326562499999999600 ) ;
#124 = CARTESIAN_POINT ( 'NONE',  ( 0.0000000000000000000, 0.0000000000000000000, 0.0000000000000000000 ) ) ;
#125 = CARTESIAN_POINT ( 'NONE',  ( 4.860316984116058100E-016, 1.780000000000000000, 3.968750000000000000 ) ) ;
#126 = MANIFOLD_SOLID_BREP ( 'Boss-Extrude1', #19 ) ;
#127 = DATE_AND_TIME ( #177, #239 ) ;
#128 = ORIENTED_EDGE ( 'NONE', *, *, #195, .F. ) ;
#129 = APPROVAL_PERSON_ORGANIZATION ( #139, #146, #155 ) ;
#130 = AXIS2_PLACEMENT_3D ( 'NONE', #175, #180, #14 ) ;
#131 = PERSON_AND_ORGANIZATION ( #206, #245 ) ;
#132 = ORIENTED_EDGE ( 'NONE', *, *, #76, .F. ) ;
#133 = PERSON_AND_ORGANIZATION_ROLE ( 'classification_officer' ) ;
#134 = EDGE_LOOP ( 'NONE', ( #223, #171 ) ) ;
#135 = DIRECTION ( 'NONE',  ( 0.0000000000000000000, 1.000000000000000000, 0.0000000000000000000 ) ) ;
#136 = CALENDAR_DATE ( 2015, 29, 7 ) ;
#137 = PERSON_AND_ORGANIZATION_ROLE ( 'creator' ) ;
#138 = ORIENTED_EDGE ( 'NONE', *, *, #76, .T. ) ;
#139 = PERSON_AND_ORGANIZATION ( #206, #245 ) ;
#140 = PLANE ( 'NONE',  #12 ) ;
#141 = FACE_BOUND ( 'NONE', #248, .T. ) ;
#142 = AXIS2_PLACEMENT_3D ( 'NONE', #46, #220, #230 ) ;
#143 = EDGE_CURVE ( 'NONE', #112, #98, #123, .T. ) ;
#144 = ADVANCED_FACE ( 'NONE', ( #165 ), #21, .F. ) ;
#145 = DIRECTION ( 'NONE',  ( 0.0000000000000000000, 1.000000000000000000, 0.0000000000000000000 ) ) ;
#146 = APPROVAL ( #158, 'UNSPECIFIED' ) ;
#147 = LINE ( 'NONE', #105, #9 ) ;
#148 = VECTOR ( 'NONE', #227, 1000.000000000000000 ) ;
#149 = AXIS2_PLACEMENT_3D ( 'NONE', #103, #100, #88 ) ;
#150 = ADVANCED_BREP_SHAPE_REPRESENTATION ( 'Flat Washer 0.25in', ( #126, #149 ), #184 ) ;
#151 = SECURITY_CLASSIFICATION_LEVEL ( 'unclassified' ) ;
#152 = LINE ( 'NONE', #117, #211 ) ;
#153 = DIRECTION ( 'NONE',  ( -0.0000000000000000000, -1.000000000000000000, -0.0000000000000000000 ) ) ;
#154 = AXIS2_PLACEMENT_3D ( 'NONE', #124, #135, #10 ) ;
#155 = APPROVAL_ROLE ( '' ) ;
#156 = EDGE_CURVE ( 'NONE', #7, #4, #64, .T. ) ;
#157 = CC_DESIGN_APPROVAL ( #146, ( #95 ) ) ;
#158 = APPROVAL_STATUS ( 'not_yet_approved' ) ;
#159 = DIRECTION ( 'NONE',  ( 0.0000000000000000000, 0.0000000000000000000, 1.000000000000000000 ) ) ;
#160 = PERSON_AND_ORGANIZATION_ROLE ( 'design_supplier' ) ;
#161 = CIRCLE ( 'NONE', #74, 3.968750000000000000 ) ;
#162 = CARTESIAN_POINT ( 'NONE',  ( 1.142174491267273600E-015, 1.780000000000000000, 9.326562499999999600 ) ) ;
#163 = CALENDAR_DATE ( 2015, 29, 7 ) ;
#164 = VERTEX_POINT ( 'NONE', #61 ) ;
#165 = FACE_OUTER_BOUND ( 'NONE', #42, .T. ) ;
#166 = EDGE_CURVE ( 'NONE', #98, #112, #174, .T. ) ;
#167 = AXIS2_PLACEMENT_3D ( 'NONE', #1, #2, #121 ) ;
#168 = APPROVAL_DATE_TIME ( #172, #43 ) ;
#169 = LOCAL_TIME ( 15, 34, 50.00000000000000000, #233 ) ;
#170 = CC_DESIGN_PERSON_AND_ORGANIZATION_ASSIGNMENT ( #232, #137, ( #95 ) ) ;
#171 = ORIENTED_EDGE ( 'NONE', *, *, #183, .F. ) ;
#172 = DATE_AND_TIME ( #163, #210 ) ;
#173 = CC_DESIGN_PERSON_AND_ORGANIZATION_ASSIGNMENT ( #186, #75, ( #60 ) ) ;
#174 = CIRCLE ( 'NONE', #106, 9.326562499999999600 ) ;
#175 = CARTESIAN_POINT ( 'NONE',  ( 0.0000000000000000000, 1.780000000000000000, 0.0000000000000000000 ) ) ;
#176 = CARTESIAN_POINT ( 'NONE',  ( 0.0000000000000000000, 1.780000000000000000, 0.0000000000000000000 ) ) ;
#177 = CALENDAR_DATE ( 2015, 29, 7 ) ;
#178 = ORIENTED_EDGE ( 'NONE', *, *, #183, .T. ) ;
#179 = DIRECTION ( 'NONE',  ( 0.0000000000000000000, 1.000000000000000000, 0.0000000000000000000 ) ) ;
#180 = DIRECTION ( 'NONE',  ( -0.0000000000000000000, -1.000000000000000000, -0.0000000000000000000 ) ) ;
#181 = EDGE_LOOP ( 'NONE', ( #78, #193 ) ) ;
#182 = DIRECTION ( 'NONE',  ( 0.0000000000000000000, -0.0000000000000000000, 1.000000000000000000 ) ) ;
#183 = EDGE_CURVE ( 'NONE', #4, #7, #113, .T. ) ;
#184 =( GEOMETRIC_REPRESENTATION_CONTEXT ( 3 ) GLOBAL_UNCERTAINTY_ASSIGNED_CONTEXT ( ( #6 ) ) GLOBAL_UNIT_ASSIGNED_CONTEXT ( ( #37, #99, #97 ) ) REPRESENTATION_CONTEXT ( 'NONE', 'WORKASPACE' ) );
#185 = DIRECTION ( 'NONE',  ( 0.0000000000000000000, 1.000000000000000000, 0.0000000000000000000 ) ) ;
#186 = PERSON_AND_ORGANIZATION ( #206, #245 ) ;
#187 = ORIENTED_EDGE ( 'NONE', *, *, #107, .F. ) ;
#188 = CC_DESIGN_PERSON_AND_ORGANIZATION_ASSIGNMENT ( #226, #160, ( #95 ) ) ;
#189 = EDGE_LOOP ( 'NONE', ( #94, #40, #240, #89 ) ) ;
#190 = COORDINATED_UNIVERSAL_TIME_OFFSET ( 5, 0, .BEHIND. ) ;
#191 = ADVANCED_FACE ( 'NONE', ( #219 ), #15, .T. ) ;
#192 = ORIENTED_EDGE ( 'NONE', *, *, #212, .F. ) ;
#193 = ORIENTED_EDGE ( 'NONE', *, *, #143, .T. ) ;
#194 = CALENDAR_DATE ( 2015, 29, 7 ) ;
#195 = EDGE_CURVE ( 'NONE', #71, #164, #110, .T. ) ;
#196 = AXIS2_PLACEMENT_3D ( 'NONE', #13, #18, #32 ) ;
#197 = DIRECTION ( 'NONE',  ( 0.0000000000000000000, 0.0000000000000000000, 1.000000000000000000 ) ) ;
#198 = SECURITY_CLASSIFICATION ( '', '', #151 ) ;
#199 = DATE_AND_TIME ( #194, #214 ) ;
#200 = PERSON_AND_ORGANIZATION ( #206, #245 ) ;
#201 = CARTESIAN_POINT ( 'NONE',  ( 0.0000000000000000000, 1.780000000000000000, -3.968750000000000000 ) ) ;
#202 = CARTESIAN_POINT ( 'NONE',  ( 1.142174491267273600E-015, 0.0000000000000000000, 9.326562499999999600 ) ) ;
#203 = DIRECTION ( 'NONE',  ( 0.0000000000000000000, 0.0000000000000000000, 1.000000000000000000 ) ) ;
#204 = APPROVAL_PERSON_ORGANIZATION ( #200, #43, #62 ) ;
#205 = CARTESIAN_POINT ( 'NONE',  ( 0.0000000000000000000, 0.0000000000000000000, -9.326562499999999600 ) ) ;
#206 = PERSON ( 'UNSPECIFIED', 'UNSPECIFIED', 'UNSPECIFIED', ('UNSPECIFIED'), ('UNSPECIFIED'), ('UNSPECIFIED') ) ;
#207 = CARTESIAN_POINT ( 'NONE',  ( 0.0000000000000000000, 1.780000000000000000, 0.0000000000000000000 ) ) ;
#208 = COORDINATED_UNIVERSAL_TIME_OFFSET ( 5, 0, .BEHIND. ) ;
#209 = ORIENTED_EDGE ( 'NONE', *, *, #93, .T. ) ;
#210 = LOCAL_TIME ( 15, 34, 50.00000000000000000, #208 ) ;
#211 = VECTOR ( 'NONE', #120, 1000.000000000000000 ) ;
#212 = EDGE_CURVE ( 'NONE', #35, #44, #161, .T. ) ;
#213 = ADVANCED_FACE ( 'NONE', ( #56 ), #53, .F. ) ;
#214 = LOCAL_TIME ( 15, 34, 50.00000000000000000, #236 ) ;
#215 = CC_DESIGN_PERSON_AND_ORGANIZATION_ASSIGNMENT ( #221, #133, ( #198 ) ) ;
#216 = ORIENTED_EDGE ( 'NONE', *, *, #244, .F. ) ;
#217 = DATE_AND_TIME ( #136, #247 ) ;
#218 = DIRECTION ( 'NONE',  ( 0.0000000000000000000, 1.000000000000000000, 0.0000000000000000000 ) ) ;
#219 = FACE_OUTER_BOUND ( 'NONE', #189, .T. ) ;
#220 = DIRECTION ( 'NONE',  ( -0.0000000000000000000, -1.000000000000000000, -0.0000000000000000000 ) ) ;
#221 = PERSON_AND_ORGANIZATION ( #206, #245 ) ;
#222 = CARTESIAN_POINT ( 'NONE',  ( 0.0000000000000000000, 1.780000000000000000, -3.968750000000000000 ) ) ;
#223 = ORIENTED_EDGE ( 'NONE', *, *, #156, .F. ) ;
#224 = CARTESIAN_POINT ( 'NONE',  ( 1.142174491267273600E-015, 1.780000000000000000, 9.326562499999999600 ) ) ;
#225 = APPROVAL_DATE_TIME ( #217, #146 ) ;
#226 = PERSON_AND_ORGANIZATION ( #206, #245 ) ;
#227 = DIRECTION ( 'NONE',  ( -0.0000000000000000000, -1.000000000000000000, -0.0000000000000000000 ) ) ;
#228 = VECTOR ( 'NONE', #153, 1000.000000000000000 ) ;
#229 = CARTESIAN_POINT ( 'NONE',  ( 0.0000000000000000000, 1.780000000000000000, -9.326562499999999600 ) ) ;
#230 = DIRECTION ( 'NONE',  ( 0.0000000000000000000, 0.0000000000000000000, -1.000000000000000000 ) ) ;
#231 = EDGE_CURVE ( 'NONE', #98, #7, #152, .T. ) ;
#232 = PERSON_AND_ORGANIZATION ( #206, #245 ) ;
#233 = COORDINATED_UNIVERSAL_TIME_OFFSET ( 5, 0, .BEHIND. ) ;
#234 = ORIENTED_EDGE ( 'NONE', *, *, #244, .T. ) ;
#235 = CC_DESIGN_DATE_AND_TIME_ASSIGNMENT ( #199, #41, ( #198 ) ) ;
#236 = COORDINATED_UNIVERSAL_TIME_OFFSET ( 5, 0, .BEHIND. ) ;
#237 = FACE_OUTER_BOUND ( 'NONE', #109, .T. ) ;
#238 = ADVANCED_FACE ( 'NONE', ( #242, #104 ), #66, .F. ) ;
#239 = LOCAL_TIME ( 15, 34, 50.00000000000000000, #34 ) ;
#240 = ORIENTED_EDGE ( 'NONE', *, *, #231, .T. ) ;
#241 = CIRCLE ( 'NONE', #122, 3.968750000000000000 ) ;
#242 = FACE_OUTER_BOUND ( 'NONE', #134, .T. ) ;
#243 = CARTESIAN_POINT ( 'NONE',  ( 0.0000000000000000000, 0.0000000000000000000, 0.0000000000000000000 ) ) ;
#244 = EDGE_CURVE ( 'NONE', #35, #164, #147, .T. ) ;
#245 = ORGANIZATION ( 'UNSPECIFIED', 'UNSPECIFIED', '' ) ;
#246 = ORIENTED_EDGE ( 'NONE', *, *, #116, .T. ) ;
#247 = LOCAL_TIME ( 15, 34, 50.00000000000000000, #190 ) ;
#248 = EDGE_LOOP ( 'NONE', ( #187, #192 ) ) ;
#249 = CARTESIAN_POINT ( 'NONE',  ( 0.0000000000000000000, 0.0000000000000000000, -3.968750000000000000 ) ) ;
ENDSEC;
END-ISO-10303-21;
